c ▷ VIENTOS DEL SUR: (La Fuga) Acordes para Guitarra, Piano & Ukelele

Vientos del Sur (Acordes)

La Fuga

Subida por davidmenruz

Compartir


Imprimir FAQ
+A
-A

Texto

Desplazamiento

Transportador

Color de Fondo

Archivos

-A
+A
1)
El principio son kintas pero la otra guitar arpegia en las ultimas
cuerdas y dibujea, asi que
lo mejor es que pongais el acorde entero y asi lo haceis to.



    DO SOL  RE#  MI#

e|-------------------|
B|-------------------|
G|--5-------8---10---|
D|--5---5---8---10---|
A|--3---5---6---8----|
E|------3------------|


2)
Ahora una parte en la que solo hay bajo, y eso se lo dejo
a los bajistas que tabs mix no valen. Pero si quieres tocar algo
toca estas notas: 

DO   SOL    LA#   FA

--Soy Mario acabo de llegar, no conozco a nadie en esta ciudad.
No se donde dormir, me han dicho que aki esta mi oportunidad.


Repetimos la parte 1).

y ahora si que la guitarra hace cosillas, 
al principio en limpio

   DO SOL LA# FA
                      |distorsion!!! ye y yeah!  :p
e|-------------------------------------|
B|-------------------------------------|
G|--5-----------5----------------------|
D|--5--5--8--3--5--5--8--3--5--5-------|
A|--3--5--8--3--3--5--8--3--5--5-------|
E|-----3--6--1-----3--6--1--3--3-------|
                              (PM)

--Elena no sabe que soñar, alguien le prometio en españa iba a alucinar
--y alucino, una barra americana es su prisiooon


3)
Estribillo, los pelos de punta!

El ritmillo mejor que lo escucheis, hay q darle feeling
y eso es chungo de escribir

e|--------------|
B|--------------|
G|--5--8--------|
D|--5--8--6--5--|
A|--3--6--6--5--|
E|--------4--3--|

--Vientos del sur, sueño europeo,
Todos me llaman EXTRANJERO
Vivo en el parque, duermo en el suelo
Todos me llaman, EXTRANJERO


Empieza a puntear sobre esto x2 veces

DO   SOL    LA#   FA

1ªparte del punteo

e|-----------------------------------------------|
B|-----------------------------------------------|
G|-----------------------------------------------|
D|---------8------------8----8----8--------------|
A|--10-11----10-8----10---10---10---10-10-8-10---|
E|-----------------------------------------------|
    (Bend)

e|----------------------------------------------|
B|---------------------8------------------------|
G|-------8-10--10-10-8---10--8-10-8-------------|
D|--8-10---------------------8-10-8-------------|
A|----------------------------------------------|
E|----------------------------------------------|
   (---pm---)  
                       
y sigue punteando sobre la parte 1)
este punteo no me lo he sacado es mas chungo


4)
Sigue las mismas notas de la estrofa 2
pero las rasguea de otra forma

       DOm   SOLm    LA#    FA
e|------3------3------6------1--|
B|------4------3------6------1--|
G|------5------3------7------2--|
D|------5------5------8------3--|
A|--3-3-3------5------8------3--|
E|---------3-3-3--6-6-6--1-1-1--|

--Omar perdió su vida en el mar,
Su sueño se ahogó
Entre Ceuta y Gibraltar.
El destino le falló,
Él no quiso nacer donde nació


Repetimos estribillo parte 4)
--Vientos del sur, sueño europeo,
Todos me llaman EXTRANJERO
Vivo en el parque, duermo en el suelo
Todos me llaman, EXTRANJERO


e|--------------------|
B|--------------------|
G|--------------------|
D|--3--5-5------------|
A|--3--5-5------------|
E|--1--3-3------------|
         (PM)

apretando los dientes miro al cielo


Repetimos estribillo parte 4)
--Vientos del sur, sueño europeo,
Todos me llaman EXTRANJERO
Vivo en el parque, duermo en el suelo
Todos me llaman, EXTRANJERO

=========================================================

Esto es todo, la he sacado bastante simplificada pero 
se toca guay,
[bend]  tira de acordes web hacia arriba
(pm)    tapando

agradecimientos, preguntas, canutos e insultos a mi email

a la mierda las naciones, las banderas y fronteras..


Video Clip de Vientos del Sur


ACORDES PARA GUITARRA

PIANO UKELELE
C
G
D#
E#
A#
F
Cm
Gm


TOP 20: Las más tocadas de La Fuga


Toca una Canción al Azar de La Fuga

Acordes

Cerrar
C
G
D#
E#
A#
F
Cm
Gm

04.53

x

71