Las musas
La Fuga
Acordes

Subida por Marcelot


Más Versiones
Ver. 2 Ver. 3 Ver. 4

Cambiar Cifrado
Americano Latino

Cambiar Tonalidad
-1 +1

Partir Pantalla Imprimir FAQ

+A
-A


Ver solo la LETRA
Afinación normal pues claro



C (sin pulsar dedo índice) G Am Em

Con quién me engañan las musas, que ya no encuentro canciones


F C F G (5)

Y me han dejao sin sonrisa, con nieve en los pantalones


C Am G
C Am G


C (sin pulsar dedo índice) G Am Em

Busqué en las habitaciones, donde habitaba la alegría

F C F G (5)

Y una en blanco me dijo, que ya no regresaría…

(Unas cuantas veces cada)
e-------------------------- ---------------------------------- -----------------------------
B------------------------- ---------------------------------- ------------------------------
G------------------------- ---------------------------------- ------------------------------
D--------2-----2--------- -----------------2-----------2--- ------------------------------
A------------3----3---3-- -----0---0---------0---0-------- ------------2-------------2---
E-------------------------- ----------------------------------- ---3---3-------3----3--------

Am Em F

Con quién se acostara, no séeeeeeeeeeee

Am Em F

No se dejan comprar, no cobran alquiler.







X 4
e-----------5---------7---------8----------7----------8-------10--------------
B--------------5-5------5--5-----5---5-------5--5------5---------5----------
G--------------------------------------------------------------------------------
D--------------------------------------------------------------------------------
A--------------------------------------------------------------------------------
E---------------------------------------------------------------------------------


Las busqué en el bar
Las busqué en el fondo del cajón.,
Las busqué en el mar
De las dudas de mi corazón.


Estribillo

C F Am(5) G (5)

Se me hace de día y no aparece

C F Am(5) G (5)

Me aferro a mi locura, mi voz se rompe.


Punteo

C F Am (5) G (5) X4


F C F C

Si las llamo se van, cambian de habitación


Am Em F G (5)

Y me quedo colgado, amigo mal humor.










F C F C

Si las ves por ahí , dales mi dirección


Am Em F G (5)

Calle soledad, sin vistas al mar, donde nunca pega el sol………



Estribillo X2


ACORDES PARA GUITARRA

PIANO UKELELE
F
C
G
Am
Em


COMENTARIOS

Aún no hay comentarios,

¡escribe el primero!

Escribe una pregunta, duda o comentario sobre esta canción, te responderemos a la brevedad.

Las más tocadas de La Fuga

Toca una Canción al Azar de La Fuga
F
C
G
Am
Em