Pastelarium
La Polla Records
Acordes

Subida por chordboy


Más Versiones
Ver. 2 Ver. 3 Ver. 4 Ver. 5 Ver. 6

Cambiar Cifrado
Americano Latino

Cambiar Tonalidad
-1 +1

Partir Pantalla Imprimir FAQ

+A
-A


Ver solo la LETRA
sOlO pAstelArium


E |-----------------------------------------------------------|
B |-----------------------------------------------------------|
G |--------------5----9—-7--5----5—9--7----------5-----5------|
D |-7------5--7----7----------7----------5—5--7-----7-----7—--|
A |---5-7-----------------------------------------------------|
E |-----------------------------------------------------------|


E |---------------------------------8-------------------------|
B |---------------------------8--------8--------8--------8----|
G |-------5-----------5—7--9-----7--------7—9------7—9--------|
D |--5—7-----7--5--7------------------------------------------|
A |-----------------------------------------------------------|
E |-----------------------------------------------------------|

E |-------------------8--------------------------------8------|
B |------8--10-10--8-----10--8----8--12—12--10-----5-----5----|
G |-7-9-------------------------9---------------7-------------|
D |-----------------------------------------------------------|
A |-----------------------------------------------------------|
E |-----------------------------------------------------------|

E |-7-----5-----8-----7-----5---------------------------------|
B |----5-----5-----5-----5-----5------------------------------|
G |-------------------------------7—5—7—55—7—55---------------|
D |-----------------------------------------------------------|
A |-----------------------------------------------------------|
E |-----------------------------------------------------------|


ACORDES PARA GUITARRA

PIANO UKELELE


COMENTARIOS

Aún no hay comentarios,

¡escribe el primero!

Escribe una pregunta, duda o comentario sobre esta canción, te responderemos a la brevedad.

Las más tocadas de La Polla Records

Toca una Canción al Azar de La Polla Records