Rata I
La Polla Records
Acordes

Subida por SILVIACANTU


Más Versiones
Ver. 2

Cambiar Cifrado
Americano Latino

Cambiar Tonalidad
-1 +1

Partir Pantalla Imprimir FAQ

+A
-A


Ver solo la LETRA
BUENO ESTA ES SOLO LA PRIMERA PARTE DE RATA LA OTRA YA VEO SI LA SACO

RE - SOL5 - RE - x3

RE - DO# - RE RE - DO# - RE SOL
RE SOL
robertico superbroncas va a las fiestas del pueblico
RE SOL
se bebe muchas cervezas y se marcha sin pagar
RE SOL
tiene un vacile muy malo creo que no controla
RE SOL
habla a gritos pa que vengan algo debe querer
RE - DO# - RE
( ESTA PARTE VA SOLO CON UN ACOPLAMIENTO
DE GUITARRA QUE LO PUEDES HACER HACERCANDO
LAS CAPSULAS AL PARLANTE MOVIENDO LA CUERDA
5 EN EL ESPACIO RE)
no se le ocurrio otra gracia que tirar un casco
a la geta de un paisano que se le ha cruzao
RE SOL
el aldeano se moskea ( GO TA CHE KUIN )
RE SOL
robertico que se fuga ( GO TA CHE KUIN)

RE SOL
1-------------------- 1----------------------
2-------------------- 2----------------------
3-------------------- 3----------------------
4--4--7--4----------- 4----------------------
5-----------7-------- 5--2--5--2-------------
6-------------------- 6----------5-----------

RE
1----------------------
2----------------------
3----------------------
4--4--7--9--7----------
5----------------------
6----------------------

RE SOL RE SOL
lo cogen la era le da muchas hostias
RE SOL RE SOL
tres costillas rotas la cara arruinada
RE DO# RE SOL
ten mas cuidao


ACORDES PARA GUITARRA

PIANO UKELELE
D
G5
C#
G


COMENTARIOS

Aún no hay comentarios,

¡escribe el primero!

Escribe una pregunta, duda o comentario sobre esta canción, te responderemos a la brevedad.

Las más tocadas de La Polla Records

Toca una Canción al Azar de La Polla Records
D
G5
C#
G