Deten la noche (Acordes)

Los 007

Subida por cantalicio

Compartir


Cambiar Cifrado
Americano Latino

Cambiar Tonalidad
-1 +1
Imprimir FAQ
+A
-A

Texto

Desplazamiento

Transportador

Color de Fondo

Archivos

TONALIDAD, TAMAÑO, CIFRADO, SCROL.

Nos renovamos: Ahora puedes cambiar TODO haciendo clic en ICONO de la Guitarra () que aparece en la parte inferior de esta página.


LETRA CON ACORDES

Le pido a la gente de atame q Lean bien la tablatura
quedo bien... y el grupo es conocido, me exraña q no
este aqui... ¡¡los 80`s!!

  A       F#            D                     E
Deten la noche para los dos hasta el fin del mundo
  A       F#            D                  E
deten la noche para los dos hasta el otro mundo
         A       F#      D                    E
para la feeeelicidad denten el tiempo en tus manos
       A         F#     E     A        E      A
abrazame y quiereme deten la noche, deten la noche



(asi va el solo)

        A                            F# 

e-------12---12---12--14--14--14--14-----------------
B---14---------------------------------12/14--12/14--
G----------------------------------------------------
D----------------------------------------------------
A----------------------------------------------------
E----------------------------------------------------

                D                   E

e---------------------------------------12-----------
B---14--14--12--10--10--10--12--14--12---------------
G----------------------------------------------------
D----------------------------------------------------
A----------------------------------------------------
E----------------------------------------------------


        A                            F# 

e-------12---12---12--14--14--14--14-----------------
B---14---------------------------------12/14--12/14--
G----------------------------------------------------
D----------------------------------------------------
A----------------------------------------------------
E----------------------------------------------------

                D                   E

e---------------------------------------12-----------
B---14--14--12--10--10--10--12--14--12---------------
G----------------------------------------------------
D----------------------------------------------------
A----------------------------------------------------
E----------------------------------------------------



         A       F#      D                    E
Para la feeeelicidad denten el tiempo en tus manos
       A         F#     E     A        E      A
abrazame y quiereme deten la noche, deten la noche


( Esta es la parte que el tipo dice ´´Gracias te doy
por estos momentos que me concedes, quiera Dios que esta
noche perdure como el recuerdo eterno de nuestro
gran amor´´  bueno... la cosa es q hay un solo de fondo)


     A                F#         D                   E

e--------------10--9--10--9---9--10--10---10--12--9--12--10--9----------
B-----12--10------------------------------------------------------------
G-----------------------------------------------------------------------
D-----------------------------------------------------------------------
A-----------------------------------------------------------------------
E-----------------------------------------------------------------------

    A                      F#                D                 E

e---12--12--12--14--14--14--14---12--12--12--12--10--10--9--9--9--7--7--
B-----------------------------------------------------------------------
G-----------------------------------------------------------------------
D-----------------------------------------------------------------------
A-----------------------------------------------------------------------
E-----------------------------------------------------------------------


         A       F#      D                    E
Para la feeeelicidad denten el tiempo en tus manos
       A         F#     E     A        E      A
abrazame y quiereme deten la noche, deten la noche
   E           A         D   E   A
deteeeeeen la nocheeeee


En toda la cancion, mientras una guitarra hace las pisadas
hay otra que hace un arpegio.... para cada nota voy a poner el
arpegio

A


e--------9----9-----------------
B-----10---10-------------------
G---9---------------------------
D-------------------------------
A-------------------------------
E-------------------------------


F# 


e--------9----9-----------------
B-----10---10-------------------
G--11---------------------------
D-------------------------------
A-------------------------------
E-------------------------------


D


e------10----10-----------------
B----7----7---------------------
G--7----------------------------
D-------------------------------
A-------------------------------
E-------------------------------



E


e------12---12------------------
B----9----9---------------------
G--9----------------------------
D-------------------------------
A-------------------------------
E-------------------------------



A---- 002220
F#m-- 244222
D---- xx0232
E---- 022100

Si hay algo malo me dicen.... si quieren escuchar los solos
o algo asi agregenme [email protected]


Video Clip de Deten la noche


ACORDES PARA GUITARRA

PIANO UKELELE
A
F#
D
E


TOP 20: Las más tocadas de Los 007


Toca una Canción al Azar de Los 007

Acordes

Cerrar
A
F#
D
E

21.23

x

103