Soplando el viento (Acordes)

Los 007

Subida por Travesuro

Compartir


Cambiar Cifrado
Americano Latino

Cambiar Tonalidad
-1 +1
Imprimir FAQ
+A
-A

Texto

Desplazamiento

Transportador

Color de Fondo

Archivos

TONALIDAD, TAMAÑO, CIFRADO, SCROL.

Nos renovamos: Ahora puedes cambiar TODO haciendo clic en ICONO de la Guitarra () que aparece en la parte inferior de esta página.


LETRA CON ACORDES

Cualquier cosa me escriben a mi mail

  Intro
e------------------------------------------
B-----0--4--0--4--0-0---5--2--0------------ (despues de esto cae en E
G-2-3---------------------------2--1-------  y se queda un rato en E
D-------------------------------------4--2-  Hasta q empieze a cantar)
A------------------------------------------
E------------------------------------------

E         A        E         C#m
Nada le importa la gente de mi
E         A         B
nada le importa de mi
E         A       E     C#m
basta querer para uno vivir
E        A         B
de lo demas q mas da



A          B
basta de hablar
E          C#m
por q es igual
A          B      E
dejen el viento soplar



E           A        E          C# 
hay quienes gastan dinero en placer
  E             A      B
y hay quien no puede comer
E        A          E         C#m
niños enfermos que quieren jugar
E                A      B
y en sillas de ruedas estan



A          B
basta de hablar
E          C#m
por q es igual
A          B      E      G
dejen el viento soplar



  F         G         C           Am           F        G               C
e-13--12---10---------12-----10---13-----------13--12---10--10------------------
B--------------------------------------10--10-------------------13--12--13------
G-------------12--12------------------------------------------------------------  x2
D-------------------------------------------------------------------------------
A-------------------------------------------------------------------------------
E-------------------------------------------------------------------------------

(despues de la segunda vez q se toca, despues de C pasa a E y sigue la cancion)

E        A        E         C#m
El mundo gira y todo sigue igual
E         A        C#m
como cuando yo no naci
E           A        E      C#m
y aun q verdades yo pueda decir
E            A        B
a quien le puede importar


A          B
basta de hablar
E          C#m
por q es igual
A          B      E
dejen el viento soplar


Video Clip de Soplando el viento


ACORDES PARA GUITARRA

PIANO UKELELE
E
A
C#m
B
C#
G
F
C
Am


TOP 20: Las más tocadas de Los 007


Toca una Canción al Azar de Los 007

Acordes

Cerrar
E
A
C#m
B
C#
G
F
C
Am

11.04

x

133