Tus ojitos pardos (Acordes)

Los 007

Subida por katiapineapple

Compartir


Cambiar Cifrado
Americano Latino

Cambiar Tonalidad
-1 +1
Imprimir FAQ
+A
-A

Texto

Desplazamiento

Transportador

Color de Fondo

Archivos

TONALIDAD, TAMAÑO, CIFRADO, SCROL.

Nos renovamos: Ahora puedes cambiar TODO haciendo clic en ICONO de la Guitarra () que aparece en la parte inferior de esta página.


LETRA CON ACORDES

Esta bella melodía he visto otra transcripción
pero le falta el bajeo y algunos acordes, espero les guste
esta versión más a tono con la versión original.

El [*] significa que  el signo es opcional y en las estrofas
(IV)... significa que el bajeo va en la 4ta cuerda (V)... en la 5ta cuerda
Intro:

      A                     D   E    A
e||-------------------------3-------------|
B||---2---------------------2--------2----|
G||---2---------------------3---1----2----|
D||---2---2--0------------------2----2----|
A||-------------4--2--0---------2---------|
E||----------------------4----------------| (Dos Veces)


     A              E
Me dicen, que me quieres
     D              E
Oooh si, házmelo saber...
F#m             D        A    [IV 2 4 2 (V)4 2]
Con tus ojitos color de miel
D         A (IV 2 4 2 (V)4 2)
Dímelo pronto
D       A (IV 2 4 2 (V)4 2)
para saber
 F        A
Que si es así


Intermedio:
      A                     D   E    A
e||-------------------------3-------------|
B||---2---------------------2--------2----|
G||---2---------------------3---1----2----|
D||---2---2--0------------------2----2----|
A||-------------4--2--0---------2---------|
E||----------------------4----------------| (Dos Veces)


    A                 E
Yo creo, que si me quieres
     D               E
En tus ojos lo puedo ver...
F#m             D        A    [IV 2 4 2 (V)4 2]
Quiéreme siempre si por favor
D            A (IV 2 4 2 (V)4 2)
Dame por siempre
D       A (IV 2 4 2 (V)4 2)
Tu corazón
F          A
Quiéreme a mí

D                                     A   A7*
Yo quiero que nunca te olvides de mi amor
D                                    E
Tus ojos por siempre los he de tener yo
D                                     A   A7*
Yo quiero que nunca te olvides de mi amor
D                           E
Te quiero, te quiero solo a ti


Intermedio:
      A                     D   E    A
e||-------------------------3-------------|
B||---2---------------------2--------2----|
G||---2---------------------3---1----2----|
D||---2---2--0------------------2----2----|
A||-------------4--2--0---------2---------|
E||----------------------4----------------| (Dos Veces)


     A              E
Me dicen, que me quieres
     D              E
Oooh si, házmelo saber...
F#m             D        A    [IV 2 4 2 (V)4 2]
Con tus ojitos color de miel
D         A (IV 2 4 2 (V)4 2)
Dímelo pronto
D       A (IV 2 4 2 (V)4 2)
para saber
 F        A
Que si es así


Críticas, comentarios y/o sugerencias a mi correo
[email protected]  Suerte y disfruten.


Video Clip de Tus ojitos pardos


ACORDES PARA GUITARRA

PIANO UKELELE
A
D
E
F#m
F
A7


TOP 20: Las más tocadas de Los 007


Toca una Canción al Azar de Los 007

Acordes

Cerrar
A
D
E
F#m
F
A7

20.52

x

79