Aunque me hagas llorar
Los Freddys
Acordes

Subida por rlcalderon1


Más Versiones
Ver. 2

Cambiar Cifrado
Americano Latino

Cambiar Tonalidad
-1 +1

Partir Pantalla Imprimir FAQ

+A
-A


Ver solo la LETRA
E----12---11---9----11---9----5---11---12---11---9----7---7--------5-------4
B----14---12-—10—---12—-10----7---12---14---14—-10----9---9-- —7-------7---5
G---------------------------------------------------------------------------

E----4----9----7----7----5---------9-----------7-----------------5---------4
B----5---10----9----9----7----10------10---9--------9------7----------7----5
G---------------------------------------------------------------------------

E---4---4----9---11-----14----12----
B---5---5---10---12-----12----12----
G-----------------------------------

Bm
Aunque me hagas llorar
E D C#m
A ti te quiero
F#7 B7
No quiero nada más
E F#m G#m E
Que no sea tu amor

No quiero ni pensar
Que tu me olvides
Muy grande es mi pesar
No lo puedo aguantar

MUSICA: el requinto de arriba


El tiempo pasará
Y yo tan solo
Que quiero sin cesar
Ser feliz con otro amor

MUSICA: : el requinto de arriba


ACORDES PARA GUITARRA

PIANO UKELELE
Bm
E
D
C#m
F#7
B7
F#m
G#m


COMENTARIOS

Aún no hay comentarios,

¡escribe el primero!

Escribe una pregunta, duda o comentario sobre esta canción, te responderemos a la brevedad.

Las más tocadas de Los Freddys

Toca una Canción al Azar de Los Freddys
Bm
E
D
C#m
F#7
B7
F#m
G#m