Lagrimas son
Los Freddys
Acordes

Subida por DaniTaborda


Más Versiones
Ver. 2 Ver. 3

Cambiar Cifrado
Americano Latino

Cambiar Tonalidad
-1 +1

Partir Pantalla Imprimir FAQ

+A
-A


Ver solo la LETRA
                  G                A                          D
E---10—9----8-----7----7-----10----9---7----9----7----5--
B---12—11---10----8----8-----12---10---9---10----9----7--
G------------------------------------------------------------------
D------------------------------------------------------------------
A------------------------------------------------------------------
E------------------------------------------------------------------

Bm Em
5----9-----7----5----7----5---3
7----10---8-----7----8----7---5
----------------------------------
----------------------------------
----------------------------------
----------------------------------

A D A
---3---7---5---3---5---3---2---2---0----------
---5---8---7---5---7---5---3---3---2----3---2
----------------------------------------4---2
---------------------------------------------------
---------------------------------------------------
--------------------------------------------------


D A D
Lagrimas son las que esta llorando el cielo
Lagrimas son las que estoy llorando yo
G A D
Lagrimas son las que dicen que me duele
Bm Em A D
Me mata tu ausencia me apena tu adiós

Si oyes llorar un ave en tu camino
Si ves morir de sed un manantial
Piensa que yo también sin tu presencia
Sufriendo llorando me muero de amor
A D
Lagrimas son las que al caer me hacen sufrir al recordar
A D
Que nuestro amor tan lindo amor no, no pudo ser
A D
Te vi partir y se murió el sueño lo azul de la ilusión




MUSICA:
G A D
E---10—-9---8-----7----7-----10----9---7---9-----7----5--
B---12—11---10----8----8-----12---10---9---10----9----7--
G------------------------------------------------------------------
D------------------------------------------------------------------
A------------------------------------------------------------------
E------------------------------------------------------------------

Bm Em
5----9----7-----5----7---5---3
7----10---8-----7----8---7---5
----------------------------------
----------------------------------
----------------------------------
----------------------------------

A D A
---3---7---5---3---5---3---2---2---0----------
---5---8---7---5---7---5---3---3---2----3---2
----------------------------------------4---2
---------------------------------------------------
---------------------------------------------------
--------------------------------------------------


A D
Lagrimas son las que al caer me hacen sufrir al recordar
A D
Que nuestro amor tan lindo amor no, no pudo ser
A D
Te vi partir y se murió el sueño lo azul de la ilusión
G A D
Lagrimas son las que esta llorando mi alma
Bm Em A D
Pensando que tienes talvez otro amor
G D
Otro amor


ACORDES PARA GUITARRA

PIANO UKELELE
G
A
D
Bm
Em


COMENTARIOS

Aún no hay comentarios,

¡escribe el primero!

Escribe una pregunta, duda o comentario sobre esta canción, te responderemos a la brevedad.

Las más tocadas de Los Freddys

Toca una Canción al Azar de Los Freddys
G
A
D
Bm
Em