Ven
Los Freddys
Acordes

Subida por Julicanta


Más Versiones
Ver. 2

Cambiar Cifrado
Americano Latino

Cambiar Tonalidad
-1 +1

Partir Pantalla Imprimir FAQ

+A
-A


Ver solo la LETRA
Intro:

C Em F G
e|---------------------------------------------------------3--|
B|---------------------------------------------------------6--|
G|-0----0-----0---0----0-----0----------2------------------4--|
D|--------2-3---2--------2-3---3-2-3------3-2-0------------3--|
A|----------------------------------------------3-0-2----5----|
E|------------------------------------------------------------|

C Em
Ven, te lo pido yo
F
ya no me hagas sufrir
C
no me niegues tu amor
A7 F C
hay ven, te acariciaré
D7
en un mundo feliz
G
donde te esperare.

C Em
Ven, te lo pido yo
F
ya no me hagas sufrir
C
no me niegues tu amor
A7 F C
hay ven, que conocerás
D7
diferente sabor
G7 C G#
que ya no olvidaras.

C# Fm F# G#
e|---------------------------------------------------------4--|
B|---------------------------------------------------------7--|
G|-1----1-----1---1----1-----1----------3------------------5--|
D|--------3-4---3--------3-4---4-3-4------4-3-1------------4--|
A|----------------------------------------------4-1-3----6----|
E|------------------------------------------------------------|

C# Fm
Ven, te lo pido yo
F#
ya no me hagas sufrir
C#
no me niegues tu amor
Bb7 F# C#
hay ven, que conocerás
Eb7
diferente sabor
G#7 C# A
que ya no olvidaras.

D F#m
Ven, te lo pido yo
G
ya no me hagas sufrir
D
no me niegues tu amor
B7 G D
hay ven, que conocerás
E7
diferente sabor
A7 D Bb
que ya no olvidaras.


Eb Gm
Laa, laa raa raa raa raa
G#
laa raa raa raa raa raa
Bb
laa raa raa raa raa raa raa aaa.


ACORDES PARA GUITARRA

PIANO UKELELE
C
Em
F
G
A7
D7
G7
G#
C#
Fm
F#
Bb7
Eb7
G#7
A
D
F#m
B7
E7
Bb
Eb
Gm


COMENTARIOS

Aún no hay comentarios,

¡escribe el primero!

Escribe una pregunta, duda o comentario sobre esta canción, te responderemos a la brevedad.

Las más tocadas de Los Freddys

Toca una Canción al Azar de Los Freddys
C
Em
F
G
A7
D7
G7
G#
C#
Fm
F#
Bb7
Eb7
G#7
A
D
F#m
B7
E7
Bb
Eb
Gm