Himno Generacional # 83
Los Planetas
Acordes

Subida por Guitarra



Otras Versiones
Ver. 2

ENTRENA TU OÍDO MUSICAL CON ESTE JUEGO. ¿QUÉ ACORDE ES?. CLIC AQUÍ PARA JUGAR

Cambiar Cifrado
Americano Latino

Cambiar Tonalidad
-1 +1

Partir Pantalla Imprimir FAQ

Ver solo la LETRA

+A
-A
LETRA CON ACORDES

NOTACION

bp= bend con palanca
s= slide
>= mantener el sonido
*= tocar varias veces esa nota o acorde

------------------------------------------------------------
------------------------------------------------------------

AFINACION

Guitarra 1 (G1): cejilla fija en el 5º traste

Resto de las guitarras (G2, G3, G4): afinación normal

------------------------------------------------------------
------------------------------------------------------------

FORMACIÓN DE ACORDES (G1)

Nota: posición de los acordes respecto de la cejilla fija

A (x02220)
Asus4 (x02230)
D/E (x04230)
Dsus2 (xx0230)
E (022100)

------------------------------------------------------------
------------------------------------------------------------



-----
INTRO
-----


G1 [Distorsión durante todo la canción]
--x-x--x-x--x-x---0------------------x-x--x-x--x-x--
--x-x--x-x--x-x------2---------------x-x--x-x--x-x--
--x-x--x-x--x-x------2---(bateria)---x-x--x-x--x-x--
--x-x--x-x--x-x------2---------------x-x--x-x--x-x--
--x-x--x-x--x-x------0---------------x-x--x-x--x-x--
--x-x--x-x--x-x----------------------x-x--x-x--x-x--



-------
VERSO 1
-------


G1
--0*---0*---0*---0*--
--2----3----0----3---
--2----2----1----2---
--2----4----2----2---
--0----0----2----0---
------------0--------

G2 [Sonido limpio]
------------------------5----
--8-7-5--5-------8-7--8---8--
-----------7-----------------
-------------7---------------
-----------------------------
-----------------------------
Cuando todo esto haya terminado



G1
--0*---0*---0*---0--0--0--0--0---x--x--
--2----3----0----3--3--3--3--3---x--x--
--2----2----1----2--2--2--2--2---x--x--
--2----0----2----0--0--0--2--0---x--x--
--0---------2----0--0--0--0--0---x--x--
------------0--------------------x--x--

G2 [Sonido limpio]
------------------------5----
--8-7-5--5-------8-7--8---8--
-----------7-----------------
-------------7---------------
-----------------------------
-----------------------------
Y no importe demasiado lo que digan



--------
CHORUS 1
--------


G1
--0--0--0--0---0*---0--0--0--0---0*--
--3--3--3--3---0----2--2--2--2---3---
--2--2--2--2---1----2--2--2--2---2---
--4--4--4--0---2----2--2--0--2---2---
--0--0--0--0---2----0--0--0--0---0---
---------------0---------------------

G2 [Harmónicos]
-------------------------------
------7--------------------7>--
----7---7---------7-7----7-----
--7-------7>----7-----7--------
-------------------------------
-------------------------------
Cuando no estés ya (x2)



G1
--0--0--0--0---0*--
--2--2--2--2---0---
--3--3--3--3---1---
--4--4--4--0---2---
--0--0--0--0---2---
---------------0---

G2 [Harmónicos]
--------------------
-----------7---7----
----7-7------7---7--
--7-----7-----------
--------------------
--------------------
Y no haya nadie nadie más



------------------------------------------------------------

G1: A D/E E Asus4

G2 [Con efectos]
---------------------------------------------------
---------------------------------------------------
--11-9-7-7s9--9-11-9-7-7-9-9s11--9-7-7-6-7s9--9-7--
---------------------------------------------------
---------------------------------------------------
---------------------------------------------------

G1: A Dsus2

-------------------------------------------------
-------------------------------------------------
--7--7-7--7--7s9--9--9s11--11--11s12--12--12s14--
-------------------------------------------------
-------------------------------------------------
-------------------------------------------------

G1: E Asus4

--------------------
--10-10--10-10--10--
--14-14--14-14--14--
--------------------
--------------------
--------------------

------------------------------------------------------------



-------
VERSO 2
-------


G1
--0*---0*---0*---0*--
--2----3----0----3---
--2----2----1----2---
--2----4----2----2---
--0----0----2----0---
------------0--------

G2 [Sonido limpio]
------------------------5--
--8-7-5--5-------8-7--8----
-----------7---------------
-------------7-------------
---------------------------
---------------------------
Cuando tenga todo esto decidido



G1
--0*---0*---0*---0--0--0--0--0--x--x--
--2----3----0----3--3--3--3--3--x--x--
--2----2----1----2--2--2--2--2--x--x--
--2----0----2----0--0--0--2--0--x--x--
--0---------2----0--0--0--0--0--x--x--
------------0-------------------x--x--

G2 [Sonido limpio]
------------------------5----
--8-7-5--5-------8-7--8---8--
-----------7-----------------
-------------7---------------
-----------------------------
-----------------------------
Y le diga a todo el mundo que ya no estás conmigo



--------
CHORUS 2
--------


G1
--0--0--0--0---0*---0--0--0--0---0*--
--3--3--3--3---0----2--2--2--2---3---
--2--2--2--2---1----2--2--2--2---2---
--4--4--4--0---2----2--2--0--2---2---
--0--0--0--0---2----0--0--0--0---0---
---------------0---------------------

G2 [Harmónicos]
-------------------------------
------7--------------------7>--
----7---7---------7-7----7-----
--7-------7>----7-----7--------
-------------------------------
-------------------------------
Cuando no estés ya (x2)



G1
--0--0--0--0---0*--
--2--2--2--2---0---
--3--3--3--3---1---
--4--4--4--0---2---
--0--0--0--0---2---
---------------0---

G2 [Harmónicos]
--------------
------7-------
----7---7-----
--7-------7>--
--------------
--------------
Y no haya nadie, nadie más



------------------------------------------------------------

G1: A D/E E Asus4

---------------------------------------------------
---------------------------------------------------
--11-9-7-7s9--9-11-9-7-7-9-9s11--9-7-7-6-7s9--9-7--
---------------------------------------------------
---------------------------------------------------
---------------------------------------------------

G1: A Dsus2

-------------------------------------------------
-------------------------------------------------
--7--7-7--7--7s9--9--9s11--11--11s12--12--12s14--
-------------------------------------------------
-------------------------------------------------
-------------------------------------------------

G1: E Asus4

--------------------
--10-10--10-10--10--
--14-14--14-14--14--
--------------------
--------------------
--------------------

------------------------------------------------------------



-------------
POST-CHORUS 1
-------------


G1
--0--0--0--0---0*---0-0--0-0---0>--
--3--3--3--3---0----2-2--0-0---3>--
--2--2--2--2---1----2-2--1-1---2>--
--4--4--4--0---2----2-2--2-2---2>--
--0--0--0--0---2----0-0--2-2---0>--
---------------0---------0-0-------

G2 [Harmónicos]
------------------------------
------------7-----7-7---------
----7-7-------7-------7-7-----
--7-----7-----------------7>--
------------------------------
------------------------------
Y podrás decirme que cabrón



G1
--0--0--0--0---0*---0-0--0-0---0>---x*--
--3--3--3--3---0----2-2--0-0---3>---x---
--2--2--2--2---1----2-2--1-1---2>---x---
--4--4--4--0---2----2-2--2-2---2>---x---
--0--0--0--0---2----0-0--2-2---0>---x---
---------------0---------0-0--------x---

G2 [Harmónicos]
--------------------------
------------7-----7-------
----7-7-------7-----7-----
--7-----7-------------7>--
--------------------------
--------------------------
Puede que incluso se te ocurran más insultos



-------------
POST-CHORUS 2
-------------


G1: D/E E A Asus4

G2 [Con efectos]
---------------------------------------------
--10s12s10s12s10s12s10--7s8bp>--7bp>--7------
----------------------------------------7----
------------------------------------------7--
---------------------------------------------
---------------------------------------------
Cuando no estés ya, cuando no haya nadie más



G1: D/E E A Asus4

G2 [Con efectos]
------------------------------------------------------------
--10s12s10s12s10s12s10--7s8bp>--7bp>--10--10-10--10--10-10--
------------------------------------------------------------
---------------------------------------7---7--7---7---7--7--
------------------------------------------------------------
------------------------------------------------------------
Cuando no estés ya, cuando no estés nunca más



G1
--0--0--0--0---0*---0--0--0--0---0*--
--3--3--3--3---0----2--2--2--2---3---
--2--2--2--2---1----2--2--2--2---2---
--4--4--4--0---2----2--2--0--2---2---
--0--0--0--0---2----0--0--0--0---0---
---------------0---------------------

G2 [Con efectos]
-------------------------------------------
--10s12s10s12s10s12s10--7s8bp>--7bp>--7----
----------------------------------------7--
-------------------------------------------
-------------------------------------------
-------------------------------------------
Cuando no estés ya, cuando no estés ya



G1
--0--0--0--0---0*---0--0--0--0---0*--
--3--3--3--3---0----2--2--2--2---3---
--2--2--2--2---1----2--2--2--2---2---
--4--4--4--0---2----2--2--0--2---2---
--0--0--0--0---2----0--0--0--0---0---
---------------0---------------------

G2 [Con efectos]
------------------------------------------------------------
--10s12s10s12s10s12s10--7s8bp>--7bp>--10--10-10--10--10-10--
------------------------------------------------------------
---------------------------------------7---7--7---7---7--7--
------------------------------------------------------------
------------------------------------------------------------
Cuando no estés ya, por aquí, cuando no estés ya



G1
--0--0--0--0---0*--
--2--2--2--2---0---
--3--3--3--3---1---
--4--4--4--0---2---
--0--0--0--0---2---
---------------0---

G2 [Con efectos]
--------------------------------
--10s12s10s12s10s12s10--7s8bp>--
--------------------------------
--------------------------------
--------------------------------
--------------------------------
Y no haya nadie, nadie más



En un momento dado de esta parte de la canción una tercera
guitarra hace esto:

G3 [Harmónicos]
--------
--------
-----7-- (Tocar varias veces)
--7-----
--------
--------


------------------------------------------------------------

G1: A D/E E Asus4

G2 [Con efectos]
---------------------------------------------------
---------------------------------------------------
--11-9-7-7s9--9-11-9-7-7-9-9s11--9-7-7-6-7s9--9-7--
---------------------------------------------------
---------------------------------------------------
---------------------------------------------------

-----------------------------------------------------------


-----
FINAL
-----


1)

G1: A Dsus2 E Asus4

G2 [Harmónicos]
-------------------------------
--7----7-----7---7---7----7----
----7----7-----7-------7----7--
-------------------------------
-------------------------------
-------------------------------

G3 [Con efectos]

--10---------10-------------------------
-----10-10------10-10---8--7h8-7h8--10--
----------------------------------------
----------------------------------------
----------------------------------------
----------------------------------------


2)

G1: A Dsus2 E Asus4

G2 [Harmónicos]
-----------------------------------
--7----7-----7---7---7----7----7>--
----7----7-----7-------7----7------
-----------------------------------
-----------------------------------
-----------------------------------

G3 [Con efectos]

--10---------10-------------------------
-----10-10------10-10---8--7h8-7h8--10--
----------------------------------------
----------------------------------------
----------------------------------------
----------------------------------------

G4 [Sonido limpio]

--10---------------
-----10----8-7-----
---------7------9--
-------------------
-------------------
-------------------


3)

G1: A Dsus2 E Asus4

G2 [Harmónicos]
----------------------------------------
--7----7-----7---7---7----7----7>---7>--
----7----7-----7-------7----7-----------
----------------------------------------
----------------------------------------
----------------------------------------

G3 [Con efectos]

--10---------10-------------------------
-----10-10------10-10---8--7h8-7h8--10--
----------------------------------------
----------------------------------------
----------------------------------------
----------------------------------------

G4 [Sonido limpio]

--10----------------------10---------
-----10----8-7------7--10-----10-10--
---------7------9-7------------------
-------------------------------------
-------------------------------------
-------------------------------------


4)

G1: A>

G3 [Con efectos. Arrastre de púa]
---------------------------------
---------------------------------
---------------------------------
--?sxxxxxxxxxxxxxxxxxxxxxxxxxxxxx
---------------------------------
---------------------------------


------------------------------------------------------------
------------------------------------------------------------


----------------------------------
HIMNO GENERACIONAL # 83 (acústico)
----------------------------------

Cejilla fija en el 5º traste. Posición de los acordes
respecto de la cejilla fija.

--------------------
FORMACION DE ACORDES

A (x02220)
Asus2 (x00220)
Asus4 (x02230)
D/E (x04230)
Dsus2 (xx0230)
Dsus2/A (x00230)
E (022100)
X (xxxxxx)

--------------------


-----
INTRO
-----


A>


X X X X


-------
VERSO 1
-------


A D/E E Asus4
Cuando todo esto haya terminado


A Dsus2 E Dsus2/A Asus4 Dsus2/A
Y no importe demasiado lo que digan



--------
CHORUS 1
--------


X X


D/E Dsus2/A E A Asus2 A Asus4
Cuando no estés ya, cuando no estés ya


D/E Dsus2/A E
Y no haya nadie, nadie más


------------------------------------
A D/E E Asus4 A Dsus2 E Asus4
------------------------------------


-------
VERSO 2
-------


A D/E E Asus4
Cuando tenga todo esto decidido


A Dsus2 E Dsus2/A Asus4 Dsus2/A
Y le diga a todo el mundo que ya no estás conmigo


--------
CHORUS 2
--------


X X


D/E Dsus2/A E A Asus2 A Asus4
Cuando no estés ya, cuando no estés ya


D/E Dsus2/A E
Y no haya nadie, nadie más


------------------------------------
A D/E E Asus4 A Dsus2 E Asus4
------------------------------------


-------------
POST-CHORUS 1
-------------


D/E Dsus2/A E A E Asus4>
Y podrás decirme que cabrón


D/E Dsus2/A E A E Asus4> X X
Puede que incluso se te ocurran más insultos


-------------
POST-CHORUS 2
-------------


D/E E A Asus4
Cuando no estés ya, cuando no haya nadie más


D/E E A Asus4
Cuando no estés ya, cuando no estés nunca más


D/E Dsus2/A E A Asus2 A Asus4
Cuando no estés ya, cuando no estés ya


D/E Dsus2/A E A Asus2 A Asus4
Cuando no estés ya, por aquí, cuando no estés ya


D/E Dsus2/A E
Y no haya nadie, nadie más


----------------
A D/E E Asus4
----------------


-----
FINAL
-----

A Dsus2 E Asus4 (x3) A>


------------------------------------------------------------
------------------------------------------------------------


ACORDES PARA GUITARRA

PIANO UKELELE
G
A
D/E
E
Asus4
Dsus2
Asus2


COMENTARIOS

Aún no hay comentarios,

¡escribe el primero!

Para hacer una pregunta o dejar un comentario sobre esta canción, debes estar LOGUEADO

Las canciones más tocadas de Los Planetas

Toca una Canción al Azar de Los Planetas
G
A
D/E
E
Asus4
Dsus2
Asus2

Nuestro servidor se demoró 0.19 segundos en generar esta página. Eso fue realmente muy rápido!