Db
Los Planetas
Acordes

Subida por oscarnay



Otras Versiones
Ver. 2

ENTRENA TU OÍDO MUSICAL CON ESTE JUEGO. ¿QUÉ ACORDE ES?. CLIC AQUÍ PARA JUGAR

Cambiar Cifrado
Americano Latino

Cambiar Tonalidad
-1 +1

Partir Pantalla Imprimir FAQ

+A
-A
LETRA CON ACORDES

NOTACION

h= hammer on
s= slide
bp= bend con palanca
>= mantener el sonido
*= tocar varias veces esa nota o acorde
¡= rasguear de arriba a abajo
!= rasguear de abajo a arriba

------------------------------------------------------------
------------------------------------------------------------

FORMACIÓN DE ACORDES

Asus2 (002200)
A/Gb (002202)
E (022100)
E/Gb (022102)

------------------------------------------------------------
------------------------------------------------------------

AFINACION

Normal (standar)

------------------------------------------------------------
------------------------------------------------------------

PATRON DE RASGUEO

Para tocar bien los acordes de esta canción hay que seguir
un patrón de rasgueo determinado. Aquí tenéis un ejemplo de
como J. rasguea un acorde concreto (Asus2):

--0--0--0--0--0--0--0--
--0--0--0--0--0--0--0--
--2--2--2--2--2--2--2--
--2--2--2--2--2--2--2--
--0--0-----------------
--0--0-----------------
¡ ¡ ! ! ! ¡ !

Sólo tenéis que aplicar este patrón en todos los acordes,
aunque durante la canción pueden darse algunas variaciones
respecto de este patrón básico.

Cuando la progresión de acordes es de este estilo...

Asus2 A/Gb Asus2

... J. los rasguea de esta forma normalmente:

--0--0--2--2--2--0--0--
--0--0--0--0--0--0--0--
--2--2--2--2--2--2--2--
--2--2--2--2--2--2--2--
--0--0-----------------
--0--0-----------------
¡ ¡ ! ! ! ¡ !

Aunque también se pueden dar pequeñas variaciones.

Escuchad bien el CD y sabréis a lo que me refiero.

------------------------------------------------------------
------------------------------------------------------------


-----
INTRO
-----


1)


-----------------------------------------
-----------------------------------------
-----------------------------------------
-----1--------1--------1--------2--1-----
--0-----0--0-----0--0-----0--0--------2--
-----------------------------------------

-----------------------------------------
-----------------------------------------
-----------------------------------------
-----------------------------------------
-----2--------2--------2--------2--2--2--
--0-----0--0-----0--0-----0--0-----------



-------
VERSO 1
-------


1)


Guitarra 1
----------


Asus2> E>

Asus2> A/Gb E> E/Gb

Asus2> Asus2 E> E


Asus2 E
Piensas que me entiendes

Asus2 E
y no sabes nada sobre mí

Asus2 E E/Gb E
Piensas que me entiendes

Asus2 E
pero no sabes nada sobre mí



Guitarra 2
----------


Tocar lo mismo que en la Intro varías veces



2)


Asus2
--------------------------------------------
--------------------------------------------
--------------------------------------------
----------2----4--4--4--4--4----2--2--2--2--
--2--2h4------------------------------------
--------------------------------------------


E E/Gb E
--------------------------------------------
--------------------------------------------
--------------------------------------------
-----------2----4--4--4--4--4---------------
--2--2--4------------------------2--2--2--2-
--------------------------------------------


Asus2 A/Gb Asus2
--------------------------------------------
--------------------------------------------
--------------------------------------------
----------2----4--4--4--4--4----2--2--2--2--
--2--2h4------------------------------------
--------------------------------------------


E E/Gb E
--------------------------------------------
--------------------------------------------
--------------------------------------------
--2s9--9--9--7--6----6--6--7--6----7--6--6--
--------------------------------------------
--------------------------------------------



La segunda vez que toques este punteo los acordes cambian a:


Asus2 E Asus2 E


Y la parte final del punteo varía:

--------------------------------------
--------------------------------------
--------------------------------------
--2s7--7--7--6----6--6--7--6----7--6--
--------------------------------------
--------------------------------------



3)



Guitarra 1
----------


Asus2 E
Me sigues y me estudias y me espías

Asus2 E
intentando convencerme

Asus2 E
Me escuchas a través de las paredes

Asus2 E
cosas que jamás quisieras escuchar



Guitarra 2 (x4)
----------

Asus2 bp> E bp>



--------
CHORUS 1
--------


Guitarra 1
----------


Asus2 A/Gb Asus2 E E/Gb E
Piensas que me entiendes

Asus2 E E/Gb E
y no sabes nada sobre mí


Asus2 A/Gb Asus2 E E/Gb E
Piensas que me entiendes

Asus2 E E/Gb E
pero no sabes nada sobre mí


Guitarra 2
----------


[Arreglo de teclado para guitarra. Efectos]

--11*--9*--9--12--4*--7*--4--7--2--0--0--2--0--0--2s7--7*--
-----------------------------------------------------------
-----------------------------------------------------------
-----------------------------------------------------------
-----------------------------------------------------------
-----------------------------------------------------------


-----------
POST-CHORUS
-----------


1)


Guitarra 1
----------


Asus2 E Asus2 E


Guitarra 2 [Con distorsión]
----------

------------------------------------
------------------------------------
------------------------------------ (x4)
-------2h4--4--4--4--4--2--2--2--2--
--2h4-------------------------------
------------------------------------


2)


Guitarra 1
----------


Asus2 A/Gb Asus2 E E/Gb E

Asus2 A/Gb Asus2 E E/Gb E


Guitarra2)
----------


[Arreglo de teclado para guitarra. Efectos]

---------12h14--14--14--14--14--14--12--12--12--12--
--12h14---------------------------------------------
---------------------------------------------------- (x3)
----------------------------------------------------
----------------------------------------------------
----------------------------------------------------


--12s17--17--17--17--16--16--17--16s12--12--12--12--12--
--------------------------------------------------------
--------------------------------------------------------
--------------------------------------------------------
--------------------------------------------------------
--------------------------------------------------------


3) [Minutaje del CD= de 3:20 a 3:52]


Ralladas del Florent. Imposible tabularlo.


Los acordes en esta parte son:

Asus2 A/Gb E E/Gb E (tocar varias veces)


-------
VERSO 2
-------


1)


Guitarra 1
----------


Asus2 E Asus2 E


Guitarra 2
----------


A bp> E bp> A bp> E bp>


2)


Guitarra 1
----------


Asus2 A/Gb Asus2 E
Y cuántas veces has sentido esto

E/Gb E Asus2 E E/Gb E
cuántas veces lo has sentido

Asus2 E
Y sigue todavía en tu cabeza

E/Gb E Asus2 E E/Gb
sigue y no sabes cuando va a parar


Guitarra 2 (x4)
----------

Asus2 bp> E bp>


--------
CHORUS 2 (Piensas que me entiendes...)
--------


Tocar lo mismo que en Chorus 1


-----
FINAL [Minutaje del CD= de 5:12 a 9:20]
-----


Más caos sónico. Imposible tabularlo.


Los acordes son los mismos que en Post-chorus 3)


------------------------------------------------------------
------------------------------------------------------------


----
D.B.
----


--------------------
FORMACIÓN DE ACORDES

Asus2 (002200)
A/Gb (002202)
E (022100)
E/Gb (022102)
--------------------


-----
INTRO
-----


Asus2> E>

Asus2> A/Gb E> E/Gb

Asus2> Asus2 E> E


-------
VERSO 1
-------


Asus2 E
Piensas que me entiendes

Asus2 E
y no sabes nada sobre mí

Asus2 E E/Gb E
Piensas que me entiendes

Asus2 E
pero no sabes nada sobre mí


------------------------------------

Asus2 A/Gb Asus2 E E/Gb E (x2)

Asus2 E Asus2 E (x2)

------------------------------------


-------
VERSO 2
-------


Asus2 E
Me sigues y me estudias y me espías

Asus2 E
intentando convencerme

Asus2 E
Me escuchas a través de las paredes

Asus2 E
cosas que jamás quisieras escuchar


--------
CHORUS 1
--------


Asus2 A/Gb Asus2 E E/Gb E
Piensas que me entiendes

Asus2 E E/Gb E
y no sabes nada sobre mí


Asus2 A/Gb Asus2 E E/Gb E
Piensas que me entiendes

Asus2 E E/Gb E
pero no sabes nada sobre mí


----------------------------------

Asus2 E Asus2 E

Asus2 A/Gb Asus2 E E/Gb E (x2)

Asus2 A/Gb E E/Gb E (x?)

Asus2 E Asus2 E

-----------------------------------


-------
VERSO 3
-------


Asus2 A/Gb Asus2 E
Y cuántas veces has sentido esto

E/Gb E Asus2 E E/Gb E
cuántas veces lo has sentido

Asus2 E
Y sigue todavía en tu cabeza

E/Gb E Asus2 E E/Gb
sigue y no sabes cuando va a parar


--------
CHORUS 2 (x2)
--------


Asus2 A/Gb Asus2 E E/Gb E
Piensas que me entiendes

Asus2 E E/Gb E
y no sabes nada sobre mí


Asus2 A/Gb Asus2 E E/Gb E
Piensas que me entiendes

Asus2 E E/Gb E
pero no sabes nada sobre mí


-----
FINAL
-----


Asus2 A/Gb E E/Gb E (x?)


------------------------------------------------------------
------------------------------------------------------------


ACORDES PARA GUITARRA

PIANO UKELELE
Asus2
A/Gb
E/Gb
E
A
D
B


COMENTARIOS

Aún no hay comentarios,

¡escribe el primero!

Para hacer una pregunta o dejar un comentario sobre esta canción, debes estar LOGUEADO

Las canciones más tocadas de Los Planetas

Toca una Canción al Azar de Los Planetas
Asus2
A/Gb
E/Gb
E
A
D
B

Nuestro servidor se demoró 0.33 segundos en generar esta página. Que velocidad!