Desaparecer
Los Planetas
Acordes

Subida por Luisfernandodaza


Más Versiones
Ver. 2 Ver. 3 Ver. 4

Cambiar Cifrado
Americano Latino

Cambiar Tonalidad
-1 +1

Partir Pantalla Imprimir FAQ

+A
-A


Ver solo la LETRA
Los Planetas_Desaparecer

Transcrito por Marcos Prieto


(0:19) Intro:
G|--/9-7---------|
D|-------9-7-----|
A|-----------9---|
E|---------------|

Verso 1:
G|----------------------------------------------------------------------------------|
D|----------------------------------------------------------------------------------|
A|--3--3-3-3--3--3-3-3--3--3-3-3--3--3-3-3--7--7-7-7--7--7-7-7--7--7-7-7--4--55--2--| x2
E|----------------------------------------------------------------------------------|

Estribillo:
G|---------------------------------------------|
D|-----------------------------------------2---|
A|--3-3--3-3----------------------5-5--5-5--5--| x2
E|------------3-3--3-3--0-0--0-0---------------|

Verso 2:
G|----------------------------------------------------------------------------------|
D|----------------------------------------------------------------------------------|
A|--3--3-3-3--3--3-3-3--3--3-3-3--3--3-3-3--7--7-7-7--7--7-7-7--7--7-7-7--7--7-7-7--| x2
E|----------------------------------------------------------------------------------|

Verso 1.
Estribillo.
Verso 2.
Verso 1.

Puente:
G|-----------------------|
D|-------------------2---|
A|--3-3--3-3----------5--| x4
E|------------0-0--0-----|

Estribillo.
Verso 2.
Verso 1. (hasta el final)


ACORDES PARA GUITARRA

PIANO UKELELE


COMENTARIOS

Aún no hay comentarios,

¡escribe el primero!

Escribe una pregunta, duda o comentario sobre esta canción, te responderemos a la brevedad.

Las más tocadas de Los Planetas

Toca una Canción al Azar de Los Planetas