Destino
Los Player´s
Acordes

Subida por Agustin1


Más Versiones

Cambiar Cifrado
Americano Latino

Cambiar Tonalidad
-1 +1

Partir Pantalla Imprimir FAQ

+A
-A


Ver solo la LETRA
Intro:         F       G                            C
e:12-10-8-7-8-5-5------8-10-12-10-8-12-10-8-12--8-12-10-8-12-
B:----------------8-6----------------------------------------
Am Dm
e:8-10-12-10-8-12-10-8-12--8-12-10-8-10-
B:--------------------------------------
F G
e:10-12-13-12-10-13-12-10-13--10-10-10-10-12-13-12-
B:-------------------------------------------------

F
Déjame abrazarte
G C
porque quiero decirte al oído lo que estoy sintiendo
Am Dm
esas cosas bonitas mi vida que llevo por dentro
F G
y se que también son reflejos de tu corazón.

Interludio: F G C
e:12-10-8-7-8---5-5------8-10-12-10-8-12-10-8-12--8-12-10-8-12-
B:------------------8-6----------------------------------------
Am Dm
e:8-10-12-10-8-12-10-8-12--8-12-10-8-10-
B:--------------------------------------
F G
e:10-12-13-12-10-13-12-10-13--10-10-10-10-12-13-12-
B:-------------------------------------------------

F
Déjame abrazarte
G C
porque quiero decirte al oído lo que estoy sintiendo
Am Dm
esas cosas bonitas mi vida que llevo por dentro
F G
y se que también son reflejos de tu corazón.

F
Déjame besarte
G C
pues no quieren mis cinco sentidos yo jamás te miento
Am Dm
que una historia de hadas parece nuestro encuentro
F G
pero es cierto a pesar de la gente nuestra gran ilusión.

Dm
Este es el destino de los dos
G C
amarnos sin temor ni tiempo
Dm
siente la aventura de vivir
G C
que solo hay que salvar este amor.

Dm
Este es el destino de los dos
G C
viajemos al favor del viento
Dm
queda el universo por sentir
G C
sabemos que nos sobra valor.

Interludio: Dm G C
e:-------------------------------------5-
B:6h8-8-8-8-8-6-6/5/6--6-8-6-6/5/6-6-8---
Dm G C
e:------------------------------5----------
B:6h8-8-8-8-8-6-6/5/6-6-8-6-6-6---8-6-5----
Dm G C
e:-------------------------------------5-
B:6h8-8-8-8-8-6-6/5/6--6-8-6-6/5/6-6-8---
Dm G C
e:------------------------------5----------
B:6h8-8-8-8-8-6-6/5/6-6-8-6-6-6---8-6-5----

F
Déjame besarte
G C
pues no quieren mis cinco sentidos yo jamás te miento
Am Dm
que una historia de hadas parece nuestro encuentro
F G
pero es cierto a pesar de la gente nuestra gran ilusión.


Este es el destino de los dos
G C
amarnos sin temor ni tiempo
Dm
siente la aventura de vivir
G C
que solo hay que salvar este amor.

Dm
Este es el destino de los dos
G C
viajemos al favor del viento
Dm
queda el universo por sentir
G C
sabemos que nos sobra valor.

Interludio: Dm G C
e:-------------------------------------5-
B:6h8-8-8-8-8-6-6/5/6--6-8-6-6/5/6-6-8---
Dm G C
e:------------------------------5----------
B:6h8-8-8-8-8-6-6/5/6-6-8-6-6-6---8-6-5----

Este es el destino de los dos
G C
amarnos sin temor ni tiempo
Dm
siente la aventura de vivir
G C
que solo hay que salvar este amor.

Dm
Este es el destino de los dos
G C
viajemos al favor del viento
Dm
queda el universo por sentir
G C
sabemos que nos sobra valor.

Outro: Dm G C
e:-------------------------------------5-
B:6h8-8-8-8-8-6-6/5/6--6-8-6-6/5/6-6-8---
Dm G C
e:------------------------------5----------
B:6h8-8-8-8-8-6-6/5/6-6-8-6-6-6---8-6-5----
Dm G C
e:-------------------------------------5-
B:6h8-8-8-8-8-6-6/5/6--6-8-6-6/5/6-6-8---
Dm G C
e:------------------------------5----------
B:6h8-8-8-8-8-6-6/5/6-6-8-6-6-6---8-6-5----


ACORDES PARA GUITARRA

PIANO UKELELE
F
G
C
B
Am
Dm


COMENTARIOS

Aún no hay comentarios,

¡escribe el primero!

Escribe una pregunta, duda o comentario sobre esta canción, te responderemos a la brevedad.

Las más tocadas de Los Player´s

Toca una Canción al Azar de Los Player´s
F
G
C
B
Am
Dm