Quiero que seamos novios
Los Player´s
Acordes

Subida por aleja2313


Más Versiones
Ver. 2

Cambiar Cifrado
Americano Latino

Cambiar Tonalidad
-1 +1

Partir Pantalla Imprimir FAQ

+A
-A


Ver solo la LETRA
Sale aqui les dejo esta rola, espero que les guste.Va dedicada a la
niña que cambio mi vida.

Intro: G Am C D
e:----3-5-3-7---3-3-3-3-5-0------3-5-3-7-0--5h7-7-7-5-3-5--
B:0-3------------------------0-3---------------------------
G Am C D G
e:----3-5-3-7---3-3-3-3-5-0------3-5-3-7-0--5h7-7-7-5-3-5--7-5-3-
B:0-3------------------------0-3---------------------------------

G
Cundo te conocÍ
Am
me enamore de tÍ
C
desde que yo te ví
D
tu me gustaste a mí.

G
No puedo ser felíz
Am
si no estoy junto a tí
C
dicen que soy muy triste
D
porque no estas aquí.

G
Yo quiero conocer
Am
el amor junto a tí
C
mi vida ha sido triste
D G
y quiero ser felíz.

G
Quiero que seamos novios
Am
mi primer amor seras tu amor mio
C
quiero que seamos novios
D
mi primera vez cariñito mío.

G
no sabes que el amor
Am
al verte me llegó te lo entrego amor mío
C
quiero quee seamos novios
D G
mi gran amor eres tú.

G Am C D
e:----3-5-3-7---3-3-3-3-5-0------3-5-3-7-0--5h7-7-7-5-3-5--
B:0-3------------------------0-3---------------------------
G Am C D G
e:----3-5-3-7---3-3-3-3-5-0------3-5-3-7-0--5h7-7-7-5-3-5--7-5-3-
B:0-3------------------------0-3---------------------------------

G
Yo quiero conocer
Am
el amor junto a tí
C
mi vida ha sido triste
D G
y quiero ser felíz.

G
Quiero que seamos novios
Am
mi primer amor seras tu amor mio
C
quiero que seamos novios
D
mi primera vez cariñito mío.

G
no sabes que el amor
Am
al verte me llegó te lo entrego amor mío
C
quiero quee seamos novios
D G
mi gran amor eres tú.

C
quiero que seamos novios
D G
mi gran amor eres tú.

G Am C D
e:----3-5-3-7---3-3-3-3-5-0------3-5-3-7-0--5h7-7-7-5-3-5--
B:0-3------------------------0-3---------------------------
G Am C D G
e:----3-5-3-7---3-3-3-3-5-0------3-5-3-7-0--5h7-7-7-5-3-5--7-5-3-
B:0-3------------------------0-3---------------------------------

CUALQUIER DUDA O COMENTARIO AMI CORREO XFA [email protected]


ACORDES PARA GUITARRA

PIANO UKELELE
G
Am
C
D
B


COMENTARIOS

Aún no hay comentarios,

¡escribe el primero!

Escribe una pregunta, duda o comentario sobre esta canción, te responderemos a la brevedad.

Las más tocadas de Los Player´s

Toca una Canción al Azar de Los Player´s
G
Am
C
D
B