En Realidad
Los Player´s
Acordes

Subida por carloschavez123


Más Versiones

Cambiar Cifrado
Americano Latino

Cambiar Tonalidad
-1 +1

Partir Pantalla Imprimir FAQ

+A
-A


Ver solo la LETRA
intro:       G                         Em
e:--------------------------------------------------
B:0-7p5-7p5-9/10-10-10-9-7--0-7p5-7p5-7/9-9-9-7-5---
G:--------------------------------------------------
C D
e:--2-0-2-0-5-5--5-4-2--2-4-5-4-2-4---
B:0-----------------------------------
G:------------------------------------

G Em
En realidad, solo venia a felicitarte ya lo ves
C D
por tu nuevo amor y que sigan adelante
G Em
en realidad, todas mis caricias eran broma es verdad
C D
y mis palabras fueron soledad.

G Em
En realidad, yo ya tengo quien me quiera
C D G
lejos de aqui, lejos de todo, lejos de ti.

G
Olvida lo que dije un dia de ti
Em
dije que te queria solo menti
C
solo estaba jugando si eso es
D
juge contigo ya lo ves.

G
Olvida ya la tarde en que te ame
Em
tirados en la arena que yo ya olvide
C
y se feliz como deves de ser
D
y olvidate de mi.

Interludio: G Em
e:--2-0-2-0-5-5--5-4-2----2-0-2-0-4-4--4-2-0--
B:0----------------------0--------------------
G:--------------------------------------------
C D
e:--2-0-2-0-5-5--5-4-2--2-4-5-4-2-4-----------
B:O-------------------------------------------
G:--------------------------------------------

G Em
En realidad, tuve mucha veces la oportunidad
C D
de confesarte lo que no senti jamas
G Em
en realidad, eres todo lo que yo llegue a soñar
C D
pero es muy tarde y ahora tengo que callar.

G Em
En realidad, sera dificil olvidarte
C D G
nunca sabras, que yo te quise mucho en realidad.


G
Olvida lo que dije un dia de ti
Em
dije que te queria solo menti
C
solo estaba jugando si eso es
D
juge contigo ya lo ves.

G
Olvida ya la tarde en que te ame
Em
tirados en la arena que yo ya olvide
C
y se feliz como deves de ser
D
y olvidate de mi.

Outro: G Em
e:--2-0-2-0-5-5--5-4-2----2-0-2-0-4-4--4-2-0--
B:0----------------------0--------------------
G:--------------------------------------------
C D
e:--2-0-2-0-5-5--5-4-2--2-4-5-4-2-------------
B:O-------------------------------------------
G:--------------------------------------------


ACORDES PARA GUITARRA

PIANO UKELELE
G
Em
B
C
D


COMENTARIOS

Aún no hay comentarios,

¡escribe el primero!

Escribe una pregunta, duda o comentario sobre esta canción, te responderemos a la brevedad.

Las más tocadas de Los Player´s

Toca una Canción al Azar de Los Player´s
G
Em
B
C
D