El gallo y el dragón
Lucybell
Acordes

Subida por juancamaney


Más Versiones
Ver. 2

Cambiar Cifrado
Americano Latino

Cambiar Tonalidad
-1 +1

Partir Pantalla Imprimir FAQ

+A
-A
MIm      RE11 DO  DOm       DOm
1 -----------------------------------------
2 -8-----8---7---5---4-----4---4-----4-----
3 -----0---0---0---0-----0---0-----0---0---
4 ---9-----------------0---------0---------
5 -7---------5---3---3---------3-----------
6 -----------------------------------------

SIb6/5- LA7 LAm7 LAm7
1 -----------------------------------------
2 -3-----3---2-----2---1-----1---1---0h1p1-
3 -----0---0-----0---0-----0---0-----------
4 ---0---------2---------2---------2-------
5 -1---------0---------0---------0---0-----
6 -----------------------------------------

MIm RE11 DO DOm DOm
les toca contar

SIb6/5- LA7 LAm7 LAm7
ser sabio al encon...trar

MIm RE11 DO DOm
buscar un color

SIb6/5- LA7 LAm7 LAm7
extiende el poder no hay fin de ustedes

MIm RE11 DO SIb6/5- SIb6/5-
crezco... nooooooo

LA7 LA7 SOL SOL
el dragón... y gallo juegan

MIm RE11 DO SIb6/5- SIb6/5-
juntos... uh nooooooo

LA7 LA7 SOL SOL SOL SOL


MIm RE11 DO DOm
les toca contar

SIb6/5- LA7 LAm7 LAm7
morder curiosidad

MIm RE11 DO DOm
cuál sentido es mejor

SIb6/5- LA7 LAm7 LAm7
en intu....ir no hay fin de ustedes

MIm RE11 DO SIb6/5- SIb6/5-
crezco... uh nooooooo

LA7 LA7 SOL SOL
el dragón... y gallo juegan

MIm RE11 DO SIb6/5- SIb6/5-
juntos... uh nooooooo

LA7 LA7 SOL SOL
el dragón es fuego el gallo es

MIm RE11 DO SIb6/5- SIb6/5-
humor... uh nooooooo

LA7 LA7 SOL SOL
mi dragón y mi gallo juegan

MIm RE11 DO SIb6/5- SIb6/5-
juntos... uh nooooooo

LA7 LA7 SOL SOL SOL SOL


MIm RE11 DO DOm
me toca contar

SIb6/5- LA7 LAm7
un dos tres cuatro cinco seis siete ocho nueve diez. ahí voy



ojo! el coro se salta el Dom

weno está linda canción
la oi y me pareció igual a Blackbird de The Beatles
empecé jugar con las notas y salió...
lindo final McCa para el disco.
la gente más joven ojalá no se quedé con Lucybell y oiga
el Album Blanco de los ingleses...
el hecho que pare la canción es con un calco.
Como me dijo alguien al menos están copiando cosas buenas.

tengo una duda con el Sol.


ACORDES PARA GUITARRA

PIANO UKELELE
Em
D11
C
Cm
A7
Am7
G


COMENTARIOS

Aún no hay comentarios,

¡escribe el primero!

Escribe una pregunta, duda o comentario sobre esta canción, te responderemos a la brevedad.

Las más tocadas de Lucybell

Toca una Canción al Azar de Lucybell
Em
D11
C
Cm
A7
Am7
G