Huracán
Lucybell
Acordes

Subida por hidalgo6269


Más Versiones
Ver. 2 Ver. 3 Ver. 4 Ver. 5

Cambiar Cifrado
Americano Latino

Cambiar Tonalidad
-1 +1

Partir Pantalla Imprimir FAQ

+A
-A
[intro]

1 ----------------------
2 ----------------------
3 ----------------------
4 ----------------------
5 ----------------------
6 -55555533--55557755---

[riff 1]

LAm FA MI
1 ----------------------------------
2 ----------------------------------
3 ----------------------------------
4 ---------------------------------
5 --------------3-5-22-00----------
6 -5555-1113-00-------------------

[riff 2]

LAm FA MI DO#m REm MI MI7
1 -----------------------------------------------------
2 -----------------------------------------------------
3 -----------------------------------------------------
4 -----------------------------------------------------
5 --------------3-5-22-00-4444-5555-7777-77775h77------
6 -5555-1111-00----------------------------------------



[riff 1]
LAm FA MI
Por lo que cultivó - los cuervos se sacan los ojos
LAm FA MI
Y quieren beber - y saben que es un vaso roto

[riff2]
LAm FA MI
Cuando quiero creer - la historia es un libro en blanco
DO#m REm MI MI7
Y hoy - nadie fue

[riff2]
LAm FA MI
Por lo que cultivó - espero frutos de otra vida
DO#m REm MI MI7
Que hoy - nadie fue


DO REm - REsus2 FA
Es un huracán - girando en mi interior
DO REm - REsus2 FA
Si encuentro el centro podrás tener paz
[intro]
podras tener paz...



[riff 1]
LAm FA MI
Por lo que cultivó - mis manos se tornan azules

[riff2]
LAm FA MI
Y quiero creer - La historia es un libro en negro
DO#m REm MI MI7
Y hoy - nadie fue

[riff2]
LAm FA MI
Por lo que cultivó - los cuervos se sacan los ojos
DO#m REm MI MI7
Y hoy - nadie fue


DO REm - REsus2 FA
Es un huracán - girando en mi interior
DO REm - REsus2 FA
Si encuentro el centro podrás tener paz
DO REm - REsus2 FA
y es que es un huracán - girando en mi interior
DO REm - REsus2 FA
Si encuentro el centro podrás tener paz
[riff2]
Podrás tener paz

LAm FA MI MI DO#m REm MI MI7


[riff2]
LAm FA MI MI DO#m REm MI MI7
oh oh ohohoh oh oh oh

[riff2]
LAm FA MI MI DO#m REm MI MI7
oh oh ohohoh oh oh oh


DO REm - REsus2 FA
Es un huracán - girando en mi interior
DO REm - REsus2 FA
Si encuentro el centro podrás tener paz
DO REm - REsus FA
y es que es un huracán - girando en mi interior
DO REm - REsus2 FA
Si encuentro el centro podrás tener paz
[final]
Podrás tener paz
Podrás tener paz
Podrás tener
Podrás tener
Podrás tener paz

[final]

1 ------------------------------------
2 ------------------------------------
3 ------------------------------------
4 ------------------------------------
5 ------------------------------------
6 -5555--1100-[x4]---5555-7711-[x4]---


ahi ta la versión fogatera.


ACORDES PARA GUITARRA

PIANO UKELELE
Am
F
E
C#m
Dm
E7
C
Dsus2
Dsus


COMENTARIOS

Aún no hay comentarios,

¡escribe el primero!

Escribe una pregunta, duda o comentario sobre esta canción, te responderemos a la brevedad.

Las más tocadas de Lucybell

Toca una Canción al Azar de Lucybell
Am
F
E
C#m
Dm
E7
C
Dsus2
Dsus