Intento no marearme
Lucybell
Acordes

Subida por Travesuro


Más Versiones
Ver. 2 Ver. 3

Cambiar Cifrado
Americano Latino

Cambiar Tonalidad
-1 +1

Partir Pantalla Imprimir FAQ

+A
-A
Punteo intro: 

3: -77-22-55- (BIS)

3: -77-22-55-4(5)4- (BIS4)

6:------------------|
5:--5-7-5-----------|
4:--------5---------| (BIS4)
3:----------5-7-----|
2:--------------6-5-|
1:------------------|

Estrofa1:

REm
Voy avanzando de improviso
no hay desvíos que tomar
si no floto hacia el cielo
es porque sé donde llegar

Punteo:(acompañado ritmo de coro)
LAm DO REm
3:------3-----------|
2:-8-5--------------| (BIS)
1:--------------8-5-|

Estrofa2:

REm
Háblame de frío
el viento puede rebanar
las distancias retroceden
la ansiedad tiende a avanzar


CORO:

LAm DO REm
PODRÉ ENCONTRAR MI CASA
3:----------3---------------|
2:--8-5---------------------|
1:----------------------8-5-|
LAm DO REm
ALLÍ PODRÉ ENCONTRAR MI CASA
3:---------------3----------------------|
2:-------8-5----------------------------|
1:---------------------------8-55555555-|





Estrofa3:
REm
Intento no marearme
6:------------------|
5:--5-7-5-----------|
4:--------5---------|
3:----------5-7-----|
2:--------------6-5-|
1:------------------|
Puede cansar tanto volar
6:------------------|
5:--5-7-5-----------|
4:--------5---------|
3:----------5-7-----|
2:--------------6-5-|
1:------------------|
Lo que me des es oro para dar
6:------------------|
5:--5-7-5-----------|
4:--------5---------|
3:----------5-7-----|
2:--------------6-5-|
1:------------------|
Aunque me muera eh de llegar aaaaaaahhh
6:------------------|
5:--5-7-5-----------|
4:--------5---------|
3:----------5-7-----|
2:--------------6-5-|
1:------------------|

CORO:

LAm DO REm
Podré encontrar mi casa
3:----------3---------------|
2:--8-5---------------------|
1:----------------------8-5-|
LAm DO REm
Allí podré encontrar mi casa
3:---------------3---------------|
2:-------8-5---------------------|
1:---------------------------8-5-|
LAm DO REm
Tan solo con ver será mi casa
3:------------8-6-8-----------|
2:------------------8-6-5-----|
1:------------------------8-5-|
LAm DO REm
Podré encontrar mi casa
3:----------3---------------|
2:--8-5---------------------|
1:----------------------8-5-|




INTERLUDIO:
REm acompañado de RE riff punteado


INTRO:
3: -77-22-55- (BIS)

3: -77-22-55-4(5)4- (BIS4)


CORO:

LAm DO REm
Podré encontrar mi casa
3:----------3---------------|
2:--8-5---------------------|
1:----------------------8-5-|
LAm DO REm
Allí podré encontrar mi casa
3:---------------3---------------|
2:-------8-5---------------------|
1:---------------------------8-5-|
LAm DO REm
Tan solo con ver será mi casa
3:------------8-6-8-----------|
2:------------------8-6-5-----|
1:------------------------8-5-|
LAm DO REm
Podré encontrar mi casa
3:----------3---------------|
2:--8-5---------------------|
1:----------------------8-5-|


INTERLUCIO:
REm acompañado de RE riff punteado


Oz.Dios.Musica.-
´Dios es mi escudo y fortaleza´

////////////////// ¿Te Animas? Sube una canción a este sitio. //////////////////

ACORDES PARA GUITARRA

PIANO UKELELE
Dm
Am
C


COMENTARIOS

Aún no hay comentarios,

¡escribe el primero!

Escribe una pregunta, duda o comentario sobre esta canción, te responderemos a la brevedad.

Las más tocadas de Lucybell

Toca una Canción al Azar de Lucybell
Dm
Am
C