Mi luz crece
Lucybell
Acordes

Subida por Osnaider


Más Versiones
Ver. 2

Cambiar Cifrado
Americano Latino

Cambiar Tonalidad
-1 +1

Partir Pantalla Imprimir FAQ

+A
-A
TRANSCRIBED BY ALIBER ESCOBAR


ALL THE SONG IS THE SAME EXCEPT IN THE BRIDGE WHEN MUSIC STOPS (PART 3)
IT’S VERY EASY AND IF YOU WANT TO CONTACT ME FOR INFORMATION AND PETITIONS
SEND ME AN E-MAIL TO: [email protected] I WANT SOME LUCYBELL
RECORDINGS SO IF YOU’RE IN CHILE COMMUNICATE WITH ME PLEASE!


part 1 7x last round
G---|-------------------------------------12-----||---------------------
D---|--------------------------11--h12----------*||---------------------
A---|--12----12----10----12---------------------*||--12----12----10-----
E---|--------------------------------------------||---------------------



G------------------129-----------------------------------------------
D------------11-------------------------------------------------------
A-----12--------------------------------------------------------------
E---------------------------------------------------------------------


part 2 ( 1 octave lower) 7x last round
G------------------------------------||------------------------------
D--------------------------5--------*||----------------------5-------
A---------------------4h5-----------*||-----------------4h5----------
E---------5--5--3--5-----------------||-----5--5--3--5----------5-2---


part 3 after pause (slow part)
G|----------|----------|----------|-----------|
D|----------|----------|----------|-----------|
A|----------|----------|----------|-----3--3--|
E|--3h5--5--|--3h5--5--|--5p3--3--|--3--------|

======================================================================
== TABLATURE EXPLANATION ==
========================================================================

---------- ---------- ----t---
----5h8--- Hammeron ----(8)--- Ghost ----6--- Tap
---------- ---------- Note --------
----5p8--- Pulloff ---------- --------

---------- ---------- -----p--
----5/8--- Slide Up -----x---- Dead -----7-- Pop
---------- ---------- Note --s-----
----58--- Slide Down ---------- --5----- Slap

---------- ||------|| Repeat --------
----5~~~-- Vibrato ||*----*|| ---5^--- Bend
---------- ||*----*|| --------
---------- ||------|| --------

---------- ---------- --------
-4:------- Time ---------- --------
-4:------- Signature ---------- --------
---------- ---------- --------

Rhythm:
w = whole note W = dotted whole
h = half note H = dotted half
q = quarter note Q = dotted quarter
e = eighth note E = dotted eighth
s = sixteenth note S = dotted sixteenth
t = 32nd note T = dotted 32nd
x = 64th note X = dotted 64th
^ = triplet

========================================================================
== Created with a demo version of BUCKET O´ TAB ==
== tablature creation software for Windows ==
== For more info email [email protected] ==
========================================================================


ACORDES PARA GUITARRA

PIANO UKELELE


COMENTARIOS

Aún no hay comentarios,

¡escribe el primero!

Escribe una pregunta, duda o comentario sobre esta canción, te responderemos a la brevedad.

Las más tocadas de Lucybell

Toca una Canción al Azar de Lucybell