Nunca será fácil amar así
Lucybell
Acordes

Subida por Mius


Más Versiones
Ver. 2

Cambiar Cifrado
Americano Latino

Cambiar Tonalidad
-1 +1

Partir Pantalla Imprimir FAQ

+A
-A
Intro  C#   C    x2
C# C G F# E
-------------------------------------------------
-------------------------------------------------
-----0---------0----------------------------0----
---6---------5----------0-------0---------9------
-4---------3----------5--------4--------7--------
---------------------3--------2------------------


C# C G F#
Una estrella se lanzó sola al mar
C# C E
Buscando espejos que reflejar
C# C G F#
Tanta oscuridad le ayudó a creer,
C# C C
que era el perfecto lugar

C# C G F#
Una perla tuvo que despertar
C# C E
Tanta luz la hizo temblar
C# C G F#
la estrella gritó de éxtasis
C# C C
No le importó a quién dañar


G A# D# C G A# D# C
Nunca será fácil amar así
G A# D# C G A# D# C
Nunca será fácil amar así

C# C X2

C# C G F
Una estrella se lanzó sola al mar
C# C E
Quería ser única y no pensar

C# C G F#
que siempre el costo de soledad gran soledad
C# C C
Y que si no sirve brillar

G A# D# C G A# D# C
Nunca será fácil amar así
G A# D# C G A# D# C
Nunca será fácil amar así


------------------------------------------------------------
------------------------------------------------------------
--5-6-5----------5-6-5--------5-6-5-------5-6-5-------------
---------8------------8------------8-----------8-----------
------------5-5----------5-5---------5-5---------8--10------
------------3-3----------3-3---------3-3---------6--8-------

-------------------------------------------------------------
-------------------------------------------------------------
-----------5-6-5----------------5-6-5------------------------
-----------------8--------------------8--6-6-6-6-6-8-8-8-8-8-
-5-5---------------5-5-------------------4-4-4-4-4-6-6-6-6-6-
-3-3---------------3-3---------------------------------------

En esta parte se empieza a cantar
------------------------------------------------------------
------------------------------------------------------------
---------5-6-5-------5-6-5--------5-6-5---------------------
--------------8-----------8------------8-------------------
----5-5---------5-5----------5-5---------8--10-------------
----3-3---------3-3----------3-3---------6--8--------------

-----------------------------------------------------------
-----------------------------------------------------------
-------5-6-5---------5-6-5---------------------------------
-------------8-------------8--6-6-6-6-6-8-8-8-8-8----------
-5-5-----------5-5------------4-4-4-4-4-6-6-6-6-6----------
-3-3-----------3-3-----------------------------------------


Vuelve al cielo, vuelve al cielo
La perla grito esto es mío

Vuelve al cielo, vuelve al cielo
la perla grito, y recuerda



G A# D# C G A# D# C
Nunca será fácil amar así
G A# D# C G A# D# C
Nunca será fácil amar así

G A# D# C G A# D# C
Nunca será fácil amar así
G A# D# C G A# D# C
Nunca será fácil amar así

G A# D# C G A# D# C
Nunca será fácil amar así
G A# D# C G A# D# C
Nunca será fácil amar así

G A# D# C G A# D# C
Nunca será fácil amar así
G A# D# C G A# D# C
Nunca será fácil amar así


Hola bueno saque esta canción al oído
así q no se si están bien algunas notas
espero q les sirva y la saquen mejor y eso xau

////////////////// ¿Te Animas? Sube una canción a este sitio. //////////////////

ACORDES PARA GUITARRA

PIANO UKELELE
C#
C
G
F#
E
A#
D#
F


COMENTARIOS

Aún no hay comentarios,

¡escribe el primero!

Escribe una pregunta, duda o comentario sobre esta canción, te responderemos a la brevedad.

Las más tocadas de Lucybell

Toca una Canción al Azar de Lucybell
C#
C
G
F#
E
A#
D#
F