Tren al Sur
Lucybell
Acordes

Subida por maria


Más Versiones
Ver. 2 Ver. 3 Ver. 4 Ver. 5

Cambiar Cifrado
Americano Latino

Cambiar Tonalidad
-1 +1

Partir Pantalla Imprimir FAQ

+A
-A
INTRO


Lam FA x 4 Lam FA Lam FA
G-|-------------------------------------------------|
D-|-------------------------------------------------|
A-|-----------------0-0--0-------0-0--0-------------|
E-|-------------131-----3-1-1-13-----3-1-1-13-------|


A.

Seis y media en la mañana?

Lam FA Lam FA
G-|-----------------------------|
D-|-----------------------------|
A-|-0-0--0-------0-0--0---------|
E-|-----3-1-1-13-----3-1-1-13---| (todo el tiempo)


C.

Y no me digas?

SOL DO Lam Mim FA SOL
G-|----------------------------------------------------|
D-|----------------------------------------------------|
A-|--------------3-30-00-000---------------------------|
E-|-3-3-3-33-333-------------0-01-11-111-3-3-3-33-3333-|


Feliz?

SOL
G-|------------------------------------------------|
D-|------------------------------------------------|
A-|------------------------------------------------|
E-|-3-3-3-33-3333-3-3-3-33-3333-3-3-3-33-3333------|



INTER (como la intro)

(como el A.)

Doce y media en la mañana?

Y no me digas?

Viajando en este tren, en este tren al sur

SOL
G-|------------------------------------------------|
D-|------------------------------------------------|
A-|------------------------------------------------|
E-|-3-3-3-33-3333-3-3-3-33-3333-3-3-3-33-3333------|


ACORDES PARA GUITARRA

PIANO UKELELE


COMENTARIOS

Aún no hay comentarios,

¡escribe el primero!

Escribe una pregunta, duda o comentario sobre esta canción, te responderemos a la brevedad.

Las más tocadas de Lucybell

Toca una Canción al Azar de Lucybell