A 18´ del sol

Luis Alberto Spinetta

Acordes

Subida por Clau


Más Versiones
Ver. 2 Ver. 3

Cambiar Cifrado
Americano Latino

Cambiar Tonalidad
-1 +1

Partir Pantalla Imprimir FAQ

+A
-A


Ver solo la LETRA
Soy amigo personal de Luis Alberto Spinetta hace 10 años.
Esta la saqué nota por nota, ayudándome con la herramienta
de WinMediaPlayer llamada “Configuración de velocidad de reproducción”
ubicada en el menu :
Ver -] Mejoras -] Configuración de velocidad de reproducción.
Con esa herramienta pude ralentizar la canción sin modificar el tono.
Ojalá la publiquen y agradecería mucho si alguien me la puede
COMPLETAR/aprobar/corregir/modificar...
cualquier comentario será muy bien recibido.
Muchas Gracias.

---7---5-2_3_5--5---0-1-2-------------5-3-232----------------------
--x----------------3----------3^---------------3-------------------
-x------------------------------4----------------4-5-4-3-4-2-------
-------------------------------------------------------------------
-------------------------------------------------------------------
-------------------------------------------------------------------



--7-7-7_5--5-5-2-2------10R---10-10_8--5-6-8-----8-------5-5---
---------------------------------------------------5-7-8-------
---------------------------------------------------------------
---------------------------------------------------------------
---------------------------------------------------------------
---------------------------------------------------------------

--------------------------------------------------
--------------------------------------------------
---------------------(-9-7-)----------------------
-----------7--7-7-7--------------7/5--5-5-5-------
-------7-9-------------------7-9------------------
---9-9-----------------10-10----------------------


-------------------------------------
-------------------------------------
------------7---9--11-10-------------
--------7-9--------------------------
--10-10------------------------------
-------------------------------------

AGRADECERÍA MUCHO SI ALGUIEN PUEDE PONER LO QUE FALTA . . .
OJALÁ HASTA EL FINAL . . .


Esperando comentarios
[email protected]


ACORDES PARA GUITARRA

PIANO UKELELE


Las más tocadas de Luis Alberto Spinetta