Jugo de lucuma (Acordes)

Invisible

Full Álbum: Invisible (1974)
Subida por N5FXX

Compartir


Cambiar Cifrado
Americano Latino

Cambiar Tonalidad
-1 +1
Imprimir FAQ
+A
-A

Texto

Desplazamiento

Transportador

Color de Fondo

Archivos

-A
+A
Uno de los mejores temas de Invisible..

En el intro juega un poco con el volumen
Y unos efectos hasta que entra:


(1:01)
 e------------------------
 b------------------------
 G------------------------        X2
 d-----6-5-4~-------------
 a-------------1h2h3------
 E--3-----------------3-2-

 e------------------------
 b------------------------
 G------------------------        X2
 d-----3-2-1~-------------
 a-------------1h2h3------
 E--3-----------------3-2-

 e------------------------
 b------------------------
 g------------------------
 D-----6-5-4-3------------       X2
 a-------------1h2h3------
 E--3-----------------3-2-


 e------------------------
 b------------------------
 g------------------------
 D-----3-2-1-0------------      X2
 a-------------1h2h3------
 E--3-----------------3-2-

(1:25)

C#m7   (x 4 6 4 5 4)



d-------9-9s7
a-9s11-------         Amaj7 Dmaj7 C#m7 (9 11 9 9 9 9)

Jugo de lúcuma
chorreando en mí,
patas de mueble de bronce
caminan ya

(1:54)

A*         Em*           G#
Ardiendo están, apenas solas
       C#maj7
las esferas,
     Abmaj7     D#m7     A#  D#m7 Fm7
esperando por ellas.


e------------------------------/
b----12-13s12--12//---10---10--/
g----12-13s12--12//---10---10--/
d--------------------(9)---(9)-/
a--------------------(10)-(10)-/
E------------------------------/

A*     (5  7  7  6  5  5)
Em*    (0  7  9  9  8  7)
Abmaj7 (x  11 13 12 13 x)
Fm7    (x  8  10 8  9  8)
Dmaj7  (x  5  7  6  7  x)

d-------9-9s7
a-9s11-------         Amaj7 Dmaj7 C#m7 (9 11 9 9 9 9)

Lorena duerme,
perdió los zapatos,
manchas de rouge y sangre
impiden verla.

A*         Em*             G#
Arcos de luces de aquella noche
         C#maj7       Abmaj7    D#m     A  D#m Fm7
en la que bebí de su cuerpo de lúcuma.


Voy a extrañar una canción
Y ninguna más
Ya que a esta la encontré
en tu dormitorio.

Termina con:

(4:02)
e----------9-12-12´12-9--------------------------/
b--9-10-12------------------------14-------------/
g------------------------13-11h13----13-11-11s13-/ X6
d------------------------------------------------/
a------------------------------------------------/
E------------------------------------------------/

e----------9-12-12´12-9------------------/
b--9-10-12-------------------------------/
g------------------------13-11h13-11p9s8-/
d----------------------------------------/
a----------------------------------------/
E----------------------------------------/

H: hammer on
P: pull off
S: slide
´: estirada

Cualquier duda a [email protected]


Video Clip de Jugo de lucuma


ACORDES PARA GUITARRA

PIANO UKELELE
G
E
D
A
Em
G#
C#maj7
Abmaj7
D#m7
A#
Fm7
D#m
A


TOP 20: Las más tocadas de Invisible


Toca una Canción al Azar de Invisible

Acordes

Cerrar
G
E
D
A
Em
G#
C#maj7
Abmaj7
D#m7
A#
Fm7
D#m
A

07.08

x

103