Apenas Floto

Luis Alberto Spinetta

Acordes

Subida por RUUL


Más Versiones
Ver. 2 Ver. 3

Cambiar Cifrado
Americano Latino

Cambiar Tonalidad
-1 +1

Partir Pantalla Imprimir FAQ

+A
-A


Ver solo la LETRA
INTRO
|-------------------------------------------
|--12----9---7--7------7-9-10-9-7-----------
|--11----9---9--9----9------------9---------
|--10---10---9--9-------------------9--9----
|--10---------------------------------------
|-------10---9--9---------------------------


|-------------------------------------------
|--12----9---7--7------7-9-10-9-7-----12~~~~
|--11----9---9--9----9------------9---------
|--10---10---9--9---------------------------
|--10---------------------------------------
|-------10---9--9---------------------------


|-------------------------------------------
|--12----9---7--7------7---9-10---9-7-------
|--11----9---9--9----9------------------9---
|--10---10---9--9-------------------------9-
|--10---------------------------------------
|-------10---9--9---------------------------


|-------------------------------------------
|--12----9---7--7------7-9-10-9-7-----------
|--11----9---9--9----9------------9---------
|--10---10---9--9-------------------9--9----
|--10---------------------------------------
|-------10---9--9---------------------------

G4maj7 C+/D C#m11 Bm11 Amaj7 G#7/#5
|------------------------5--------4---------
|--12-----9---7--7----5----5---5----5---5---
|--11-----9---9--9----7--------6--------5---
|--10----10---9--9----7--------6--------4---
|--10--------------------------0------------
|--------10---9--9----7-----------------4---

C#m7
La inmensidad azul
F#m7
sin tu querer,
C#m7
no sabe a nada
F#m7
y la distancia
G#m11
no podrá más que un tiempo,
Amaj7
tiempo tan precioso,
C#m/Bb Bm11
como la mirada tuya
C+/D
sobre un marfil.

INTRO

C#m7
Y si despierto
F#m7
solo en altamar,
C#m7
y apenas floto
F#m7
y me juraras que
G#m11
me harías feliz
Amaj7
y así me salvo,
C#m/Bb Bm11
igual, ¿cómo lograría
C+/D
subsistir?

INTRO
solo de guitarra sobre los acordes de la letra
INTRO

C#m7
Mientras el mundo
F#m7
gira porque sí,
C#m7
y uno lo mira
F#m7
ya no pretendo
G#m11
que me digas adiós
Amaj7
ya que es muy tarde
C#m/Bb Bm11
y es así como la vida
C+/D
viene y va.

INTRO

"...bastante feliz"


ACORDES

Cuerdas 6 5 4 3 2 1
E A D G B E
C#m7 x 4 2 4 5 x
F#m7 2 x 2 2 2 x
G#m11 4 x 4 4 2 x
Amaj7 5 x 6 6 5 x
C#m/Bb 6 x 6 6 5 x
Bm11 7 x 7 7 5 x
C+/D 10 x 10 9 9 x

Las posiciones descriptas son las mas "jazzeras"
y suenan como en el disco.
Lo que no quita que puedas reemplazarlas por las
comunes y suene muy bien igual.

Cualquier duda me contactan a [email protected]
Que siga la melodía...


NUEVO FORO DE MÚSICA

¿Tienes alguna duda, consulta, pregunta, consejo o algo para compartir sobre esta canción?

¡Puedes abrir un hilo en el FORO para que la comunidad te ayude! Hacer una pregunta

ACORDES PARA GUITARRA

PIANO UKELELE
C#m11
Bm11
Amaj7
C#m7
F#m7
G#m11
C#m/Bb
E
A
D
G
B


Las más tocadas de Luis Alberto Spinetta

C#m11
Bm11
Amaj7
C#m7
F#m7
G#m11
C#m/Bb
E
A
D
G
B