Fuji

Spinetta y los Socios del Desierto

Acordes

Subida por paola


Más Versiones
Ver. 2 Ver. 3 Ver. 4 Ver. 5

Cambiar Cifrado
Americano Latino

Cambiar Tonalidad
-1 +1

Partir Pantalla Imprimir FAQ

+A
-A


Ver solo la LETRA
Acordes:

SIm6/11 X-2-4-0-3-0
A6 X-0-2-2-2-2
G6 5-5-0-4-3-0
? 4-4-4-0-3-0

6ta afinada en Re

Intro:

e------------------------------------------------------------------------
b--10-----------12p10---9-----------10p9---7-----------10p7---5----------
g-----------11-------------------9------------------7------------------6-
d--------0--------------------0------------------0------------------0----
a-----0--------------------0------------------0------------------0-------
D--0--------------------0------------------0------------------0----------

--------------------------------------2---2--
---7p5---3-----------5p3---2-----3p2------3--
------------------4-----------2-----------2--
---------------0--------------------------0--
------------0-----------------------------0--
---------0-----------------0--------------0--

Verso:

Has dejado noches noches del adios

---------0------------0-------------------2-----2----
---7--------7---5--------5---3-----3------3--------3-
------6------------4------------3-----3---2--2-------
---0------------0------------0------------0----------
-----------------------------------------------------
-----------------------------------------------------

La certeza de tus ojos cree que me voy

---------0------------0------------3------2-----2----
---7--------7---5--------5---3--------3---3--------3-
------6------------4------------3---------2--2-------
---0------------0------------0------------0----------
-----------------------------------------------------
-----------------------------------------------------

Has dejado un cielo para amane-cerlo a la vez...

------------2-----------2-----------------------------------------------
---3-----------------3-----2---5--------5---3-----------3---3--------3--
---------2---------------------------2---------------2------------2-----
------4---------------------------2---------------0------------2--------
---2---------------------------4--------3------2------------0-----------
------------------5-------------------------0---------------------------

...alli

-------------------------------------------------------------------------
----------------12p10---9-----------10p9---7-----------10p7---5----------
------------11-------------------9------------------7------------------6-
---------0--------------------0------------------0------------------0----
------0--------------------0------------------0------------------0-------
---0--------------------0------------------0------------------0----------

--------------------------------------2---2--
---7p5---3-----------5p3---2-----3p2------3--
------------------4-----------2-----------2--
---------------0--------------------------0--
------------0-----------------------------0--
---------0-----------------0--------------0--


Cruzas solo puentes puentes entre ti

---------0------------0-------------------2-----2----
---7--------7---5--------5---3-----3------3--------3-
------6------------4------------3-----3---2--2-------
---0------------0------------0------------0----------
-----------------------------------------------------
-----------------------------------------------------

Las flores y el silencio son cosas de tu amor

---------0------------0------------3------2-----2----
---7--------7---5--------5---3--------3---3--------3-
------6------------4------------3---------2--2-------
---0------------0------------0------------0----------
-----------------------------------------------------
-----------------------------------------------------

Has dejado un rio para atrave-sarlo a la vez...

------------2-----------2-----------------------------------------------
---3-----------------3-----2---5--------5---3-----------3---3--------3--
---------2---------------------------2---------------2------------2-----
------4---------------------------2---------------0------------2--------
---2---------------------------4--------3------2------------0-----------
------------------5-------------------------0---------------------------

...alli

-------------------------------------------------------------------------
----------------12p10---9-----------10p9---7-----------10p7---5----------
------------11-------------------9------------------7------------------6-
---------0--------------------0------------------0------------------0----
------0--------------------0------------------0------------------0-------
---0--------------------0------------------0------------------0----------

--------------------------------------2---2--
---7p5---3-----------5p3---2-----2h3------3--
------------------4-----------2-----------2--
---------------0--------------------------0--
------------0-----------------------------0--
---------0-----------------0--------------0--


Bm6/11
Y es que me espera

A6
y cobijo me dará

Bm 6/11
entre sus manos

A6
hasta que luego venga Fuji

Bm 6/11
con el mundo.

A6
Y me hace las señales

Bm 6/11
con las piernas

A6
desde un punto de la calle

G6
desolada


y es que puedo soportar esta distancia,

? (ver arriba)
y es que te has impreso en mi como una luz.


-------------------------------------------------------------------------
----------------12p10---9-----------10p9---7-----------10p7---5----------
------------11-------------------9------------------7------------------6-
---------0--------------------0------------------0------------------0----
------0--------------------0------------------0------------------0-------
---0--------------------0------------------0------------------0----------

---------------5p3------------------3p2---2--
---7p5---3-----------------2-----2--------3--
------------4-----------------2-----------2--
------------------------------------------0--
------------------------------------------0--
---------0-----------------0--------------0--


Cruzas solo puentes puentes entre ti

---------0------------0-------------------2-----2----
---7--------7---5--------5---3-----3------3--------3-
------6------------4------------3-----3---2--2-------
---0------------0------------0------------0----------
-----------------------------------------------------
-----------------------------------------------------

Las flores y el desierto son cosas de tu amor

---------0------------0------------3------2-----2----
---7--------7---5--------5---3--------3---3--------3-
------6------------4------------3---------2--2-------
---0------------0------------0------------0----------
-----------------------------------------------------
-----------------------------------------------------

Has dejado un cielo para amane-cerlo a la vez...

------------2-----------2-----------------------------------------------
---3-----------------3-----2---5--------5---3-----------3---3--------3--
---------2---------------------------2---------------2------------2-----
------4---------------------------2---------------0------------2--------
---2---------------------------4--------3------2------------0-----------
------------------5-------------------------0---------------------------

alli...

-------------------------------------------------------------------------
----------------12p10---9-----------10p9---7-----------10p7---5----------
------------11-------------------9------------------7------------------6-
---------0--------------------0------------------0------------------0----
------0--------------------0------------------0------------------0-------
---0--------------------0------------------0------------------0----------

---7p5---------------5p3------------2h3---2--
---------3-----------------2-----2--------3--
------------------4-----------2-----------2--
---------------0--------------------------0--
------------0-----------------------------0--
---------0-----------------0--------------0--


Bm6/11
Y es que me espera

A6
y cobijo me dará

Bm 6/11
entre sus manos

A6
hasta que luego venga Fuji

Bm 6/11
con el mundo.

A6
Y me hace las señales

Bm 6/11
con las piernas

A6
desde un punto de la calle

G6
desolada


y es que puedo soportar esta distancia,

? (ver arriba)
y es que te has impreso en mi como una luz.


-------------------------------------------------------------------------
----------------12p10---9-----------10p9---7-----------10p7---5----------
------------11-------------------9------------------7------------------6-
---------0--------------------0------------------0------------------0----
------0--------------------0------------------0------------------0-------
---0--------------------0------------------0------------------0----------

---7p5---------------5p3------------2--3--2-----2--
---------3-----------------2-----2-----------3--3--
------------------4-----------2-----------------2--
---------------0--------------------------------0--
------------0-----------------------------------0--
---------0-----------------0--------------------0--


NUEVO FORO DE MÚSICA

¿Tienes alguna duda, consulta, pregunta, consejo o algo para compartir sobre esta canción?

¡Puedes abrir un hilo en el FORO para que la comunidad te ayude! Hacer una pregunta

ACORDES PARA GUITARRA

PIANO UKELELE
A6
G6
Bm



A6
G6
Bm