Bagualerita
Luis Alberto Spinetta
Acordes

Subida por glendaaa


Más Versiones
Ver. 2

HERRAMIENTAS

Cambiar Cifrado
Americano Latino

Cambiar Tonalidad
-1 +1

Partir Pantalla Imprimir FAQ

+A
-A

LETRA CON ACORDES

¿Tu Guitarra esta Afinada? PRUEBA NUESTRO NUEVO AFINADOR

INTRO x4
|------------------2---6---¬2--2--
|--8--8--8-8/10-8--3---8---¬3--3-
|--7--7------------2---7---¬2--2--
|--5--5------------5---8---¬5--5--
|------------------2---6---¬2--2--
|--6--6---------------------------


Am7 Bm7
Su razón la luz del valle
Cmaj7/G F#m11 Em
Bagualerita . donde va .
Am7 Bm7 (arpegiado)
Su razón la luz del valle

Am7 Bm7
Va por todas las murallas
Cmaj7/G F#m11 Em
Quebrándolas roca a roca .
Am7 Bm7
Va por todas las murallas
Cmaj7/G F#m11 B7/#9 Em
Quebrándolas roca A roca
Cmaj7/G F#m11 B7/#9 Em
Quebrándolas roca A roca

Am7 Bm7
Una vez que no hubo luna
Cmaj7/G F#m11 Em
Hizo pasar . al lucerito
Am7 Bm7 (arpegiado)
Una vez que no hubo luna

Am7 Bm7
Árbol, cruz sin brazos de hombre
Cmaj7/G F#m11 Em
Bagualerita ahora es tu hogar
Am7 Bm7
Árbol, cruz sin brazos de hombre
Cmaj7/G F#m11 B7/#9 Em
Baagualerita ahora es tu hogar
Cmaj7/G F#m11 B7/#9 Em
Baagualerita ahora es tu hogar
Cmaj7/G F#m11 B7/#9 Em
Baagualerita ahora es tu hogar

Cmaj7/G F#m11 B7/#9 Em9
ahhhh ah ah ahhhh

|--3--3/5--------0--0-----
|--1--1----------1--1--3--
|--0--0---5--5---2--2--3--
|---------5--5---3--3--2--
|----------------3--3--3--
|---------5--5------------

B11(b13) .../A#
Y un torrente de agua brotó del
|----------0---------------0--------
|--------2---2-----------2---2------
|------0-------0-------0-------0----
|----4-----------4---4-----------4--
|--2---------------1----------------
|-----------------------------------

A7(13) Gmaj7 F#5 F#5
Desierto atado a tus manos
|----------0------------------------
|--------2---2----------------------
|------0-------0------4-------------
|----4-----------4----4-------------
|--0------------------------4----4--
|---------------------3-----2----2--

B11(b13) .../A#
Y embebiendo tu cuerpo halló tu
|----------0---------------0--------
|--------2---2-----------2---2------
|------0-------0-------0-------0----
|----4-----------4---4-----------4--
|--2---------------1----------------
|-----------------------------------

A7(13) Gmaj7 F#5 F#5
mirada, mirada de pájaro
|----------0------------------------
|--------2---2----------------------
|------0-------0------4-------------
|----4-----------4----4-------------
|--0------------------------4----4--
|---------------------3-----2----2--



Am7 Bm7
Una vez que no hubo luna
Cmaj7/G F#m11 Em
Hizo pasar . al lucerito
Am7 Bm7 (arpegiado)
Una vez que no hubo luna

Am7 Bm7
Su razón la luz del valle
Cmaj7/G F#m11 Em
Bagualerita . donde va .
Am7 Bm7
Va por todas las murallas
Cmaj7/G F#m11 B7/#9 Em
Quebrándolas roca A roca
Cmaj7/G F#m11 B7/#9 Em
Quebrándolas roca A roca
Cmaj7/G F#m11 B7/#9 Em
Quebrándolas roca por roca

Cmaj7/G F#m11 B7/#9 Em9
ahhhh ah ah ahhhh


ACORDES

Cuerdas 6 5 4 3 2 1
E A D G B E

Am7 x 0 2 0 1 0 (3)
Bm7 x 2 4 2 3 2
Gmaj7/G 3 3 2 0 0 0
F#m11 2 x 2 2 0 x
B7/#9 x 2 1 2 3 x
Em9 0 2 4 0 0 0
B11(b13) x 2 4 0 2 0
.../A# x 1 4 0 2 0
A7(13) x 0 4 0 2 0
Gmaj7 3 x 4 4 x x
F#5 2 4 x x x x


Cualquier duda me consultan a [email protected]
Que siga la melodía...

////////////////// ¿Te Animas? Sube una canción a este sitio. //////////////////

ACORDES PARA GUITARRA

PIANO UKELELE
Am7
Bm7
Cmaj7/G
F#m11
Em
B7#9
A
Em9
B11
A#
A7
Gmaj7
F#5
E
D
G
B


COMENTARIOS

Aún no hay comentarios,

¡escribe el primero!

Escribe una pregunta, duda o comentario sobre esta canción, te responderemos a la brevedad.

Las canciones más tocadas de Luis Alberto Spinetta

Toca una Canción al Azar de Luis Alberto Spinetta
Am7
Bm7
Cmaj7/G
F#m11
Em
B7#9
A
Em9
B11
A#
A7
Gmaj7
F#5
E
D
G
B

02.17


Nuestro servidor se demoró 0.26 segundos en generar esta página. Que velocidad!