Cielo de tí

Luis Alberto Spinetta

Acordes

Pelusón of Milk (1991)
Subida por kongo


Más Versiones
Ver. 2 Ver. 3 Ver. 4 Ver. 5 Ver. 6

Cambiar Cifrado
Americano Latino

Cambiar Tonalidad
-1 +1

Partir Pantalla Imprimir FAQ

+A
-A


Ver solo la LETRA
Algunas aclarcaciones: Seguro estoy de que estas noson las posiciones
que usa Spinetta pero son las que pude encontrar y suenan bastante bien.
Seguramente en algunas partes se me hallan mezclado las dos guitarras,
tantoslas notas como las partes. Tengan en cuenta que resulta muy
dificil en algunas partes separa las dos guitarras para sacarlas bien.
No tengo alguien que me acompañe tocando una parte para poder escuchar
las dos violas sonando al mismo tiempo asique no
estoy seguro como suena... ustedes me diran.
La parte de la guitarra del registro agudo cuando dice "YO no tengo un
solo sigo tuyo en mi..." esta sacada de la segunda vez que la hace y
tiene algunas diferencias con la primera vez.

Cualquier comentario... mail.
Saludos espero que guste

Intro:

e......................................................................
b.....2..3...............................................2..3..........
g..4.............................2.2v..................4...............
d...............5.4.2...2v....2/4..............................5..4..2.
a......................................................................
E......................................................................

e---------------------0------------------------------7--7--------------
b--------------7--7---------9--9---------7--7--------9--9---------7--7-
g--------------7--7---------9--9---7-----7--7--------9--9---7-----7--7-
d-----------5---------------9--9------5------------7-----------7-------
a--------0------------0--0---------0------------0-----------0----------
E----------------------------------------------------------------------

..........................................
..........................................
.............2..2h4.2v....................
...2v...2/4...............................
..........................................
..........................................

---7-----7--7----5-----5------7-----7-----
---------9--9----------7--7---------9--9--
---------9--9----------7--7---------9--9--
------7-------------7------------7--------
---0-------------0------------0-----------
------------------------------------------


Verso:

Una luna de tu noche...

C C C C N C C C C N
..2........2......4........4.....
........3.....3.........5.....5.. Por si esta guitarra no se escucha
.....2...............4........... X2 bien, el ritmo es sencillo: Compas
................................. de 3/4 C=Corchea y N=Negra
.................................
.................................

--------5-----5---------7-----7--
--------7-----7---------9-----9--
--7---------------9-------------- X2
-----7---------------7-----------
--0---------------0--------------
---------------------------------

Una figura de tus manos...

ª=armonico
...........................4...............2...............4.....
..3........7ª.....5...........5...3...........3...5.....5.....5..
........2.....7ª........4...............2............6...........
.....0...............2...............0...........................
..................................................4..............
.................................................................

--------5-----5---------7-----7---------5-----5---------7-----7--
--------7-----7---------9-----9---------7-----7---------9-----9--
--7---------------9---------------7---------------9--------------
-----7---------------7---------------7---------------7-----------
--0---------------0---------------0------------------------------
-----------------------------------------------------------------

Yo no tengo un solo signo tuyo en mi... Ya no se...

.............0........0.................2........................
.............2........2................2........5.............5..
.........2............2...............2.......4...............4..
....4.................2..............1.....................6.....
........................................................4........
............................................4....................

--7/9-------------10--9/10--9--7--5--5------2/4--7---------7--7--
-------10-----10------------------------------------5--/7--9--9--
--7/9------9----------9/11--9--7--6--6------2/4--8-----/8--9--9--
-----------------------------------------------------------------
-----------------------------------------------------------------
-----------------------------------------------------------------

SI quizas...

...........2.......4.........4.......
...........3......4.........5........
.........2.......4.........4.........
.......4........4.........6..........
.....2.........2.........4...........
.....................................

---------7--7------7--7-------7--7---
-----/7--7--7--/7--7--7--7----9--9---
-----/7--7--7--/8--8--8--8/9--9--9---
-------------------------------------
-------------------------------------
-------------------------------------

Repite intro:

..............................................5..7b9....................
.....2..3...............................5..7..........7..10..9..........
..4....................2.2h4.2..2..4/6.........................9p7p6..7.
...........5.4.2.2..4...................................................
........................................................................
........................................................................

---
---
---Lo mismo que en intro
---
---
---

........................
........................
...4h6h7..6/4..2.....4..
..................2.....
........................
........................

---
---
---
---
---
---



Em7 022033 Am7 x02213
Sin despertar es como te ataras
Em7 Am7 B7
Si no comprendes tus ojos brillaran solo brillaran


ACORDES PARA GUITARRA

PIANO UKELELE
E
C
B
Em7
Am7
B7


Las más tocadas de Luis Alberto Spinetta

E
C
B
Em7
Am7
B7