Era de tontos

Luis Alberto Spinetta

Acordes

Spinettalandia y sus amigos (1971)
Subida por Pilot


Más Versiones
Ver. 2 Ver. 3 Ver. 4

Cambiar Cifrado
Americano Latino

Cambiar Tonalidad
-1 +1

Partir Pantalla Imprimir FAQ

+A
-A


Ver solo la LETRA
G|-----------------------------------------------------------------------
D|8---8---8--8----6/8-8-8-8--8---8----6/8---6-8-8-8-8----6/8--8--8---8-6-
A|-----------------------------8-----------------------------------8-----
E|-----------------------------------------------------------------------

“No puedo evitar que mi memoria
G|------------------------------6/8-10-8-6-8-6---------
D|6-8-8-8-8----6-8-8-8-8----6/8-----------------8-8----
A|-----------8-----------------------------------------
E|-----------------------------------------------------
este recopilando los viejos tiempos”
G|--------------6/8--8-8-8-----------------------------
D|8--8-8-8--6/8---------------6------------------6-----
A|---------------------------------------4-6-7-8-------
E|-----------------------------------4-6---------------
“El pensamiento y todas esas cosas”
G|----------------------------------------------------------
D|8-----8--6-8-8----------6/8--8-8-8---8---6/8-8---8---8----
A|---------------8-6---------------------6-------6---6------
E|-------------------6--------------------------------------
“Lo tengo que olvidar, están en mi cuerpo”
G|----------------6-----------------------------------------
D|6/8--8-8-8--6-8----8-6-8--8----6--6-6--6------6---6-------
A|------------------------------------------4-6---6---6-4---
E|----------------------------------------------------------
“Donde yo quiero estar, es lo que no interesa,
G|-6--6----6-6-6-6-6--6----------------------
D|-------------------------------------------
A|-------4----------------6--6----6-6----6---
E|------------------------------6------6-----
elijo el lugar, lo tomo por sorpresa uh yee!!”
G|-6--6----6-6-6-6-6--6-------------------------------
D|----------------------------------------------------
A|-------4---------------4-5-6--6-6-6--6-6-6--6-6-6---
E|----------------------------------------------------
4 veces
G|-----------------------------|
D|--6--------------------------|
A|----6-8---------6------------|
E|6-------9---9-9-----4-4-6-6--|

“Después de mucho andar y estar muy solo”
G|----------------------------------------
D|8------------------------8---------8----
A|----------------------------------------
E|----------------------------------------
“La preocupación en mi cabeza”
G|----------------------------------------
D|8----------------------8---6-8-8-8-8-8--
A|-------------------------8--------------
E|----------------------------------------
“Tuve que dar mil vueltas y chocar en todos lados”
G|--------------6-------------------------------------------
D|8-----8---6-8----8-6-8-----8---8---8---8---8---8---8---8--
A|-----------------------------8---8---8-------8---8---8----
E|----------------------------------------------------------
“Para poder gozar el polvo de estrellas”
G|--------------------------------------------6-8-6----
D|8-----8---8---8-8-8-8-8-8---6-----6--6--6-8--------8-
A|-----------------------------------------------------
E|-----------------------------------------------------
“Donde yo quiero estar, es lo que no interesa”
G|-------------------------------------------
D|-------------------------------------------
A|4-----4--4-----4-4-4-4--6--6-6--6-6--6-6---
E|-------------4-----------------------------
“Elijo el lugar, lo tomo por sorpresa”
G|------------------------------------------------------
D|------------------------------------------------------
A|4--4-4--4-4-4-4-4-4--4--4/6--6-6-6--4h6-4h6--6-6-6--6-
E|------------------------------------------------------
(durante “los” solos de guitarra)
22 veces
G|-----------------------------|
D|--6--------------------------|
A|----6-8---------6------------|
E|6-------9---9-9-----4-4-6-6--|

G|------------------------------------------------------------------
D|8---8---6/8-8-8-8--6/8-8--8-8-8-----------------------------------
A|------------------------------------------------------------------
E|------------------------------------------------------------------

G|-----------------------------
D|6/8--8-6--6--------------6---
A|-----------------4-6-7-8-----
E|-------------4-6-------------

“El tiempo ya paso entre mis dedos”
G|------------4/6/8-4-6-4----------------------------------
D|8---8---4/6-------------6---------8---8-------8---8---8--
A|--------------------------------8---8-------8---8---8----
E|----------------------------6------------6---------------
“La electricidad pierde potencia”
G|---------------------------------------------------
D|---------------------------6---6-6-----------------
A|----------------------------------------4-6-6--6---
E|6--6-6-6--4-6-6-6-6-6--6------------4-6------------
“Menos mal que ahora el camino es mas sencillo”
G|-------------------------------------------------
D|-------------------------------------------------
A|4---4----4---4---4--4---6-----6---6---6---6---6--
E|-------4---4---4------------6---6-------6--------
“Que me inconformo con solo estar conmigo”
G|--------------------------------------------------
D|--------------------------------------------------
A|4---4----4-4-4-4--4-----6--6-6-6--6-6-6-6-6-6--6--
E|-------4------------------------------------------

(durante los ultimos solos de guitarra)
2 veces 20 veces
G|-----------------------------|---15------------------------------------|
D|--6--------------------------|------13-15-11---11-11-13----------------|
A|----6-8(4)------6------------|13--------------------------11-11-13-13--|
E|6-------9---9-9-----4-4-6-6--|-----------------------------------------|
Final
G|---------------------------------------------| h: hammer on
D|--6------------------------------------------| /: slide up
A|----6-8(4)----------------4-4-6-6------------| : slide down
E|6-------9-------------------------4-4-6-6--- (x): nota opcional

Mientras su música se siga tocando y escuchando el carpo jamás morirá,
vivirá eternamente en la memoria de todos...
e-mail: [email protected]


ACORDES PARA GUITARRA

PIANO UKELELE


Las más tocadas de Luis Alberto Spinetta