La verdad de las grullas
Luis Alberto Spinetta
Acordes

Subida por Camilo
Álbum: Silver Sorgo ( 2001)


Más Versiones
Ver. 2

HERRAMIENTAS

Cambiar Cifrado
Americano Latino

Cambiar Tonalidad
-1 +1

Partir Pantalla Imprimir FAQ

+A
-A

LETRA CON ACORDES

¿Tu Guitarra esta Afinada? PRUEBA NUESTRO NUEVO AFINADOR

G7                    Badd13-
Si le pido al mundo que pare y me lleve,
Am9 Am7 D9 G7
tomo un sonido del aire y lo dejo caer.
Badd13-
Y si la esperanza se agota al fin,
Am9 D9 G7
cuando vuelva el río con sus manos nos reunirá.
F7M/5- Am7
Por eso todos nos estamos mirando.
G7 F7
En un momento por decirlo así.

Tengo una razón para pensar en Dios y en mí.
Sin embargo el cielo se cruza y no se deja saber.
Algo que se fue, sin totalmente desaparecer.
Algo que es un destello que nos viene a llevar.

Por eso todos nos estamos buscando, en un momento por decirlo así
Por eso todos nos estamos buscando, es imposible sólo con la sed...
G7 Am7
Te espero así, en la más fuerte luz.
G7 Am7 C7 A7sus2
Entre las hojas, o en el aire.
G7 Am7 D9
En la laguna, sin que aparezca el rey...
Cm9 Fm7
Ya no están aquí, como ayer, las cosas que perdimos.
A#sus2add11 G#add13-/5-/A#
Todo quedó atrás al despertar.
Am7 Em7 C7 Gaug
Bosque azul de la oscuridad.
G7 Am7
Nada es imposible sin tu amor...

Es la organización de la selva incrustada
entre las ciudades que avanzan hasta morir.
Por eso todos nos estamos alejando,
en un momento por decirlo así.
Te espero así, en la más fuerte luz.
Entre las hojas, o en el aire.
En la laguna, sin que aparezca el rey...
Tu desilusión nació una noche de verano,
y todo esto se rompe a la vez, al despertar.
Bosque azul de la oscuridad...
Nada es imposible sin tu amor...
Queda una verdad que dicen las grullas:
no te aventures más allá del valle mortal.
Dicen que se juntan allí seres humanos
para capturarse y hacerse todo tipo de mal.
Por eso todos nos estamos mirando, en un momento por decirlo así.
Por eso todos nos estamos...


G7
E||-------------------||
B||--3----------------||
G||--4----------------||
D||--4----------------||
A||-------------------||
E||--3----------------||

Badd13-
E||--2----------------||
B||--4----------------||
G||--4----------------||
D||--5----------------||
A||-------------------||
E||-------------------||

Am9
E||--7----------------||
B||--5----------------||
G||--5----------------||
D||--5----------------||
A||--0----------------||
E||-------------------||

D9
E||-------------------||
B||--5----------------||
G||--5----------------||
D||--4----------------||
A||--5----------------||
E||-------------------||

F7M/5-
E||--0----------------||
B||--0----------------||
G||--2----------------||
D||--3----------------||
A||-------------------||
E||--1----------------||

Am7
E||--3----------------||
B||--1----------------||
G||--0----------------||
D||--2----------------||
A||--0----------------||
E||-------------------||

F7
E||--5----------------||
B||--5----------------||
G||--5----------------||
D||--3----------------||
A||-------------------||
E||-------------------||

C7
E||-------------------||
B||--5----------------||
G||--4----------------||
D||--5----------------||
A||--3----------------||
E||-------------------||

A7sus2
E||-------------------||
B||--5----------------||
G||--4----------------||
D||--5----------------||
A||-------------------||
E||--5----------------||

Cm9
E||-------------------||
B||--3----------------||
G||--3----------------||
D||--1----------------||
A||--3----------------||
E||-------------------||

Fm7
E||--4----------------||
B||--4----------------||
G||--1----------------||
D||--1----------------||
A||--3----------------||
E||--1----------------||

A#sus2add11+
E||--0----------------||
B||--1----------------||
G||--3----------------||
D||--3----------------||
A||--3----------------||
E||-------------------||

G#add13-/5-/A#
E||--0----------------||
B||--1----------------||
G||--1----------------||
D||--0----------------||
A||--1----------------||
E||-------------------||

Em7
E||--0----------------||
B||--3----------------||
G||--0----------------||
D||--0----------------||
A||--2----------------||
E||-------------------||


Gaug
E||--3----------------||
B||--4----------------||
G||--4----------------||
D||--5----------------||
A||-------------------||
E||-------------------|

////////////////// ¿Te Animas? Sube una canción a este sitio. //////////////////

ACORDES PARA GUITARRA

PIANO UKELELE
G7
Am9
Am7
D9
Fmaj7
F7
C7
A7sus2
Cm9
Fm7
A#
Em7
Gaug


COMENTARIOS

Aún no hay comentarios,

¡escribe el primero!

Escribe una pregunta, duda o comentario sobre esta canción, te responderemos a la brevedad.

Las canciones más tocadas de Luis Alberto Spinetta

Toca una Canción al Azar de Luis Alberto Spinetta
G7
Am9
Am7
D9
Fmaj7
F7
C7
A7sus2
Cm9
Fm7
A#
Em7
Gaug

07.17


Nuestro servidor se demoró 0.13 segundos en generar esta página. Eso fue realmente muy rápido!