Lago de forma mía

Luis Alberto Spinetta

Acordes

Pelusón of Milk (1991)
Subida por orlando


Más Versiones
Ver. 2 Ver. 3 Ver. 4

Cambiar Cifrado
Americano Latino

Cambiar Tonalidad
-1 +1

Partir Pantalla Imprimir FAQ

+A
-A


Ver solo la LETRA
(ver tablatura de acordes al final)

Eb69 Eb+add9 Cm7
Te hallaré en mí
Cm/Bb Ab7M9 Eb9/G Fm7
como un jarrón.
Ao7 Eb/Bb Abm7M/Cb
Lago de forma mía,
Ab7M/C Db711 Dm6- Cm/Eb
más que un suspiro es una fiebre helada
G79 Eb69 Eb+7 Eb69 Eb+7
al volver.

Ya no pienses más que tu ángel partió.
Lago de forma mía, Cm/Eb
tengo pensado rescatarte sin pensar en mí.
Fm6- Eb/G Fm6- Eb/G Cb/Eb Fm6-
O en la gente, gente que viene y que va,
Eb/G Fm6- Eb/G Cb/Eb
gente que viene, que viene y que va.

-PUNTEO1- Eb69 Eb+7 Eb69 Eb+7

Yo no sé doblar ni sé caer.
Lago del alma mía.
Todas las cosas se han perdido de su corazón,
Cm11
de su estrella...

Bb4sus Ab6
Vas mirando del lado del agua,
Bb4sus Cm6-
sabe bien ir mirando la vida.
Bb4sus Ab6
Vas mirando del lado del agua,
Bb4sus Cm6-
sabe bien ir mirando la vida...

-PUNTEO1-

Donde va un color quisiera saber.
Labios de una oración.
Bajo la lluvia se producen torbellinos...


____________________________________________________________________________

Esto es lo que escuché un jueves a la noche:

PARTE A estrofas.
=================


Te allaré_en mi comounjarrón Lago de forma...
| | | | |
Eb69 Eb+add9 Cm7 Cm/Bb Ab7M9 Eb9/G Fm7 Ao7 Eb/Bb
E------1-----------1------3----3-----6-------------4---------------6----
B------1-----------0------4----1------------4--------------4-------4----
G------0-----------0------3----0-----5------3------1------5-------0-----
D------1-----------1-----------------5------3------1-----4--------------
A-------------------------3----1----------------------------------------
E------------------------------------4------3------1----5--------6------


...mía más queun suspiro es una fiebre helada...
| | | | |
Abm7M/Cb Ab7M/C Db711 Dm6- Cm/Eb
E-------3--------3----------3-------6------------8----|
B-------4--------4----------6-------6------------8----|
G------1-------1-----------4-------5------------5-----|
D-----------------------------------------------------|
A-----2------3------------4-------5------------6------|
E-----------------------------------------------------|


PARTE B al volver.
==================

...Al volver
|
G79 Eb69 Eb+7
E-----6-------------------------------------------------------------|
B-----6-----4--4---3--3---------------------------------------------|
G----4------5--5---4--4------(repite varias veces estos dos acordes)|
D------------3--3---3--3--------------------------------------------|
A-----------6------6--6---------------------------------------------|
E---3---------------------------------------------------------------|


PARTE C "tengo pensado rescatarte sin pensar en mí"
===================================================

...O en la gente, gente que viene y que va...
| | | | |
Fm6- | Eb/G Fm6- Eb/G Cb/Eb | Fm6-
E-----------------------------------------------------------------------
B--2---2-----4--4-------------------------------------------------------
G--1---1-----3--3---lo mismo...--------4-----4------(repite acordes ---
D--1---1-----1--1----------------------4-----4-------hasta Cb/Eb, ---
A--------------------------------------6-----6-------después PUNTEO1)---
E--1---1-----3--3-------------------------------------------------------


PUNTEO1
=======

Db11 Db/Cb
E------3-----1_2_1---|
B----4--4---2--------|
G---4------1---------|
D--------------------|
A---4------2---------|
E--------------------|



PARTE D vas mirando del lado del agua
=====================================

... de su estrella...
|
G79 Cm11
E---6---------1------------------5-5-5-5--------------------------------
B---6---------4------------------6-6-6-6---4_6_4------------------------
G--4----------3------------------5-5-5-5---3_5_3------------------------
D-----------------------------------------------------------------------
A-------------3---------------------------------------------------------
E--3--------------------------------------------------------------------


Vas mirando del lado del agua, sabe bien ir mirando la vida
| |
Bb4sus Ab6 Bb4sus Cm6-
E--1-------------------1--------------1------------------3-------------|
B--4-------------------1--------------4------------------4-------------|
G--3-------------------1--------------3------------------3-------------|
D--3-------------------1--------------3------------------6-------------|
A--1-------------------3--------------1------------------3-------------|
E----------------------4-----------------------------------------------|

___________________________________________________________________________
Bueno, fin. Cualquier comentario, dudas, insultos... escribanme.


NUEVO FORO DE MÚSICA

¿Tienes alguna duda, consulta, pregunta, consejo o algo para compartir sobre esta canción?

¡Puedes abrir un hilo en el FORO para que la comunidad te ayude! Hacer una pregunta

ACORDES PARA GUITARRA

PIANO UKELELE
Cm7
Cm/Bb
Fm7
Abmaj7
Dm6
Fm6
Cm11
Ab6
Cm6
Db11
Db/Cb
B
D
E


Las más tocadas de Luis Alberto Spinetta

Cm7
Cm/Bb
Fm7
Abmaj7
Dm6
Fm6
Cm11
Ab6
Cm6
Db11
Db/Cb
B
D
E