Ludmila (Acordes)

Luis Alberto Spinetta

Subida por Osnaider

Compartir


Cambiar Cifrado
Americano Latino

Cambiar Tonalidad
-1 +1
Imprimir FAQ

Para cambio de tonalidad, zoom, cambio de cifrado, haz clic en este botón


CONSEJO:

Afina tu guitarra antes de tocar. Prueba nuestro afinador en linea.

+A
-A

Texto

Desplazamiento

Transportador

Color de Fondo

Archivos

TONALIDAD, TAMAÑO, CIFRADO, SCROL.

Nos renovamos: Ahora puedes cambiar TODO haciendo clic en ICONO de la Guitarra () que aparece en la parte inferior de esta página.


LETRA CON ACORDES

Arpegio 1

E-------0-------------------------------------------
B-----0---0-------0---------0---------0---------0---
G---2-----------2---2-----2---2-----2---2-----2---2-
D-------------2---------2---------2---------2-------
A---------------------0-----------------------------
E-2---------3-------------------2---------3---------

Arpegio 2

E----------------------------------
B-------3---------3---------3------
G-----2---2-----2---2-----2---2----
D---0---------0---------0----------
A-2-------------------0----------2-
E-----------3----------------------

Arpegio 1
Ludmila, Ludmila...

Arpegio 2
Conozco tu puerta
no sé si estás despierta aún

Arpegio 1
MI amor Ludmila,

DO#m - LA - DO#m - LA - LAm - MI

Arpegio 1

Ludmila golpeo en tu puerta
no sé si estás despierta aún
oh mi amor
Ludmila Ludmila yo veo en tus ojos
veo como un ancho mar
Ludmila penetro tu cuerpo
penetro como un más allá
Ludmila Ludmila
Ludmila Ludmila


AVISO: Esta tablatura no es 100% correcta, pero es bastante acertada.
Mi intención es dar una idea acerca d la canción, ya q es bastante difícil.
Una de las canciones mas emotivas q se escribieron...
Espero q les haya sido útil esta transcripción
[email protected]
Chau, saludos!!!


Video Clip de Ludmila


ACORDES PARA GUITARRA

PIANO UKELELE
E
C#m
A
Am


TOP 20: Las más tocadas de Luis Alberto Spinetta


Acordes

Cerrar
E
C#m
A
Am

15.36


85