Me gusta ese tajo

Luis Alberto Spinetta

Acordes

Subida por lucio


Más Versiones
Ver. 2 Ver. 3 Ver. 4 Ver. 5

Cambiar Cifrado
Americano Latino

Cambiar Tonalidad
-1 +1

Partir Pantalla Imprimir FAQ

+A
-A


Ver solo la LETRA
con ritmo de blues

----4-----3-----2--------------------------
-----------------------------------2-------
--4---4/3---3/2----0/1-------------2-------
-----------------------------------1-------
-------------------------0^2-------2-------
-------------------------------------------



E5
Me gusta ese tajo
que ayer conocí
A5
Me gusta ese tajo
E5
que ayer conocí
B5
ella me calienta
A5
la quiero invitar a dormir.



E5 (corte)
Con sus lindas piernas
ella me hace pensar
A5
que puedo destruir la mierda
A5 empieza otra vez
que es mi gran ciudad.
E5
Me gusta ese tajo...





E5
a| --2-----4---
e| --0---------


A5

d| --2-----4---
a| --0---------


B5

d| --4-----6---
a| --2---------


ACORDES PARA GUITARRA

PIANO UKELELE
E5
A5
B5


Las más tocadas de Luis Alberto Spinetta

E5
A5
B5