Nectar

Luis Alberto Spinetta

Acordes

Para los árboles (2003)
Subida por Williamaeror


Más Versiones
Ver. 2

Cambiar Cifrado
Americano Latino

Cambiar Tonalidad
-1 +1

Partir Pantalla Imprimir FAQ

+A
-A


Ver solo la LETRA
Los arreglos de este tema los escribi juntos, pero estan hechos para tocar
con 2 guitarras o con un pedal especial (que no se como se llaman), porq
cada melodia esta contrapunteada con 4tas justas y si bien asi suena bien,
no es asi como lo toca Spinetta.


Intro

---15v/12--12--10v/7--7/5--5---------8---------7------------------------
---15v/12--12--10v/7--7/5--5----7/5--8--8--10--7---8p7--5--7------------
---14---------------------------6/4--7--7--9---6--------4--6----7/9--7--
--------------------------------7/5--8---------7----------------7/9--7--
------------------------------------------------------------------------
------------------------------------------------------------------------

---15v/12--12--10v/7--7/5--5---------8---------7---------8v-8-8-8-8-8-8-
---15v/12--12--10v/7--7/5--5----7/5--8--8--10--7---7--8--8v-8-8-8-8-8-8-
---14---------------------------6/4--7--7--9---6---6--7--7v-7-7-7-7-7-7-
--------------------------------7/5--8---------7------------------------
------------------------------------------------------------------------
------------------------------------------------------------------------

Verso:

Solo soñe... ...del tiempo que regresa...

------5-----------6--8--5-----
------6-----4--8--6--8--5--6--
------5-----3--7-----------5--
------7-----------------------
---0--------------------------
------------------------------

y Nunca entiendo...

---------------------------------------10------------------------------
-------------6---10---8----5/7--5/7v---10---10h12p10------------10--8--
-------------5---10---7----4/6--4/6v---------9h11p9-------------10--7--
-------------7---10---9-------------------------------7--9--10--10--9--
-----------------------------------------------------------------------
-----------------------------------------------------------------------

---------10---10----------------------------------------10--10/12------
---8/10--10---12--10--------10v--10--8--10--8--5/7--7---10--10/12------
---7/9---11-----------7--9--10v--10--7--10-----4/6--6------------------
----------------------------10v--10--9--10-----------------------------
-----------------------------------------------------------------------
-----------------------------------------------------------------------

...y te llevas el nectar.

---10/12--10-------------------------------
---10/12--10--------10v--10---8---5/7--7v--
--------------7--9--10v--10---7---4/6--6v--
--------------------10v--10---9------------
------------------------------10-----------
-------------------------------------------


Un mediodia desperte...
(*1)
---8---10-----------------10/12--12--10--7--5---------7---------5-----
---8---10-----------------10/12--12--10--7--5------8--7------6--5-----
---9---11---------------------------------------9--7------7--5--------
---7---9----------------------------------------9---------7-----------
----------------------------------------------------------------------
----------------------------------------------------------------------

---------2---7--
------3--2---7--
---4--2------6--
---4---------7--
----------------
----------------

*1 la sonoridad de esta parte deberia ser como la combinacion de estas
dos lineas

.........7.........5.........2...7...
......8.........6.........3......7...
...9.........7.........4.........6...
.................................7...
.....................................
.....................................

-----------------------------2---2--
---------7---------5---------2---2--
------7---------5---------2------2--
---9---------7---------4---------4--
------------------------------------
------------------------------------

Cualquier duda o comentario... mail.
Saludos


NUEVO FORO DE MÚSICA

¿Tienes alguna duda, consulta, pregunta, consejo o algo para compartir sobre esta canción?

¡Puedes abrir un hilo en el FORO para que la comunidad te ayude! Hacer una pregunta

ACORDES PARA GUITARRA

PIANO UKELELE


Las más tocadas de Luis Alberto Spinetta