No seas fanática

Luis Alberto Spinetta

Acordes

Privé (1985)
Subida por Dantefirme


Más Versiones
Ver. 2 Ver. 3

Cambiar Cifrado
Americano Latino

Cambiar Tonalidad
-1 +1

Partir Pantalla Imprimir FAQ

+A
-A


Ver solo la LETRA
G/G         G/F#        G/F   G/E
Ya no intento convencerte más
G/Eb G/D
la verdad no es verdad
G/F# C G/B Am G G/F
y ya no hay que llorar asi...

Tus secretos me quitaron la paz
con tu pose me fui
me olvidé de reir asi...

B5 G5 A5 F5 B5 G5 A5 F5
No seas fanática, no seas fanática nena
B5 G5 A5 F5 B5 G5 A5 F5
no seas fanática, lunática...

Un hombrecito confundido está
su mamá le pegó
y no quiere esconderse más...

Sólo quiero que lo hagamos bien
la penumbra te cubre la cara
y no está aquó...

No seas fanática, fanática de vos misma
no seas fanática, histórica
No seas fanática, no seas fanático nene,
no seas fanático, no seas histórico...

Fmaj7(#11)
Huyendo por el bajo me doy cuenta
Em A Dm
los delirios de tu mente fingiendo sentir amor
Fmaj7(#11)
no soporto que tus manos aquí
Em A Dm C G F Dm C F G
ya no me encuentren como siempre queriendo ver la verdad

Ya no intento convencerte más
la verdad no es verdad
y ya no hay que llorar asi...

Tus secretos me quitaron la paz
con tu pose me fui
me olvidé de reir asi...

No seas fanática, fanática nena
no seas fanática, lunática...
no seas fanática, histórica nena
no seas fanática, lunática...
Em C5 D5 Bb5 Em C5 D5 Bb5
no seas fanática, no seas fanática...

e|-------------------------------------------------|>
B|-----3-------3-------3-------3-------3-------3---|>
G|---0---0---0---0---0---0---0---0---0---0---0---0-|>
D|-5-------4-------3-------2-------1-------0-------|>
A|-------------------------------------------------|>
E|-------------------------------------------------|>
G/G G/F# G/F G/E G/Eb G/D

e|-------------------------------------------------||
B|-----3-------1-------3-------1-------0-----------||
G|---0---0---0---0---0---0---2---2---0---0-3-------||
D|-4---------------------------------------0-------||
A|---------3-------2-------0---------------3-------||
E|---------------------------------3---------------||
G/F# C G/B Am G G/F

e|----------------------------||
B|----------------------------||
G|*-4-4-4-4-4-4-4------------*||
D|*-4-4-4-4-4-4-4-5-7-3--3-3-*||
A|--2-2-2-2-2-2-2-5-7-3--3-3--||
E|----------------3-5-1--1-1--||
B5 G A F


NUEVO FORO DE MÚSICA

¿Tienes alguna duda, consulta, pregunta, consejo o algo para compartir sobre esta canción?

¡Puedes abrir un hilo en el FORO para que la comunidad te ayude! Hacer una pregunta

ACORDES PARA GUITARRA

PIANO UKELELE
G/F#
G/F
G/E
G/D
C
G/B
Am
G
B5
G5
A5
F5
Em
A
Dm
F
C5
D5
Bb5


Las más tocadas de Luis Alberto Spinetta

G/F#
G/F
G/E
G/D
C
G/B
Am
G
B5
G5
A5
F5
Em
A
Dm
F
C5
D5
Bb5