Organismo en el aire

Luis Alberto Spinetta

Acordes

Tester de violencia (1988)
Subida por luisjte12


Más Versiones
Ver. 2 Ver. 3 Ver. 4

Cambiar Cifrado
Americano Latino

Cambiar Tonalidad
-1 +1

Partir Pantalla Imprimir FAQ

+A
-A


Ver solo la LETRA
Riff 1

e--7---5-3-----5--7---5-3-----5-://
b--7---3-1-----4--7---3-1-----4-://
g--0-------0-0----0-------0-0---://

Riff 2

e-7-8-7---7---7-7--:/ /-6---6-6---6-6---6-6--//
b--5-5-5---4-----4-:/X3/--4-----4-----4-----4-//
g------------------:/ /----------------------//

Riff 3 (Estribillo)

e------0--------------:/ /------0---------3-//
b-5----3----3-----5-3-:/ /-5----3----5--5-3-//
g-4----0----5-----5-5-:/X3/-4----0----5--7-5-//
d-4----2----5-----5-5-:/ /-4----2----5--5-0-//
a-3----2----0-----0-0-:/ /-3----2----0--0---//
E------0--------------:/ /------0-----------//

Riff 4 (Estribillo 2)

e------0--------------:/ /------0-----------:/ /------0-------7-//
b-5----3----3-----5-3-:/ /-5----3----3----5-:/ /-5----3----3--7-//
g-4----0----5-----5-5-:/X3/-4----0----5----7-:/X2/-4----0----5--9-//
d-4----2----5-----5-5-:/ /-4----2----5----7-:/ /-4----2----5--7-//
a-3----2----0-----0-0-:/ /-3----2-----------:/ /-3----2-------9-//
E------0--------------:/ /------0----5----7-:/ /------0----5--7-//

Riff 5 (Instrumental)

e------3-----------------------------//
b-1----3----4----4----5----1----3----//
g-0----0----5----5----5----3----2----//
d-3----2----5----3----5----4----2----//
a-3----2---------4--------------3----//
E-----------4---------4----2----2----//

intro Riff 1

Riff 1
Sentado en la terraza mirando el mar
comprendo como es la soledad,
no se si voy y vengo si acaso estoy,
ni se si me podría fugar.

Riff 2
Ansié un abismo
y todo todo, todo se acercó,
tu corazón cerró la idea.

Riff 1

Riff 1
Recuerdo de vivir en la Atlántida,
como un pez que no podía gritar,
recuerdo la bruma de la ciudad,
como un monstruo sobre el amanecer.

Riff 2
Ningún lugar de hecho es bueno
cuando nadie está,
es solo grietas para huir...

Riff 3
Tu corazón, lo sé, me voló lo que miraba,
tu corazón, lo sé, me voló lo que miraba,
y como el viento, chau, se llevó lo que llevaba,
y como el viento, chau, se llevó todo...
un organismo en el aire

Riff 1
Parado en el tumulto de una estación,
ya no hay algo que no pueda pensar,
es tanto lo que viene lo que se va,
se va como se pasa ese tren.

Inter: Riff 2

Riff 4
Tu corazón, lo sé, me voló lo que miraba,
tu corazón, lo sé, me voló lo que miraba,
y como el viento, chau, se llevó lo que llevaba,
y como el viento, chau, se llevó lo que llevaba,
se llevó lo que miraba, se llevó lo que llevaba



Instrumental: Riff 5

Riff 1 variando el tiempo

Riff 1
Sentado en la terraza mirando el mar
comprendo como es la soledad,
no se si voy y vengo si acaso estoy,
ni se si me podría fugar.

Riff 2
Ansié un abismo
y todo todo, todo se acercó,
con tu calor ya no hay precipicios.

Riff 4
Tu corazón, lo sé, me voló lo que miraba,
tu corazón, lo sé, me voló lo que miraba,
y como el viento, chau, se llevó lo que llevaba,
y como el viento, chau, se llevó lo que llevaba,
se llevó lo que miraba, se llevó lo que llevaba.

(Acá repite la última parte del Riff 4)

se llevó lo que miraba,
se llevó lo que miraba.

Riff 4 (sin la primer repetición)

tu corazón, lo sé, me voló lo que miraba,
se llevó lo que miraba,
se llevó lo que miraba,

Riff 4 (sin la primer repetición)

Tu corazon mi amor, me voló lo que miraba,
se llevó lo que miraba,
se llevó lo que miraba.

Termina con:
E-2-//
B-3-//
G-2-//
D-2-//
A-3-//
E---//


NUEVO FORO DE MÚSICA

¿Tienes alguna duda, consulta, pregunta, consejo o algo para compartir sobre esta canción?

¡Puedes abrir un hilo en el FORO para que la comunidad te ayude! Hacer una pregunta

ACORDES PARA GUITARRA

PIANO UKELELE
E
B
G
D
A


Las más tocadas de Luis Alberto Spinetta

E
B
G
D
A