Serpiente (viaja por la sal)
Luis Alberto Spinetta
Acordes

Subida por feernando


Más Versiones
Ver. 2

HERRAMIENTAS

Cambiar Cifrado
Americano Latino

Cambiar Tonalidad
-1 +1

Partir Pantalla Imprimir FAQ

+A
-A

LETRA CON ACORDES

¿Tu Guitarra esta Afinada? PRUEBA NUESTRO NUEVO AFINADOR

e----------5---5-5--/
b----------5---5-5-/
g----------5---5-5-/ C - Bm - Am ] 4 Veces
d---10-9--7---7-7-/
a---10-9--7---7-7-/
E---8--7--5---5-5-/


C Bm Am
En el tibio día,
de la luz,
anda la serpiente,
por la sal...
Nadie la acomete, a irse...
serpiente viaja,
sin cesar...

Am!

E-0-3---/

(Con un poco de wah-wah)

e--------7-5---------------------------------------------------/
b-------5----8-5-------------------------------------6--4------/
g------5---------7---7p5----------5h7-5h7------9--7--5--2-----/ 2 Veces
d-----5---------------------7-5----------------9--5--7--4-----/
a--------------------------------7----------------------------/
E-------------------------------------------------------------/

e--------7-5-----------------------------------------------/
b-------5----8-5-------------------------------------------/
g------5---------7---7p5----------5h7-5h7------9--9-------/
d-----5---------------------7-5----------------9--9-------/
a--------------------------------7-------------------------/
E----------------------------------------------------------/

Dm
Y en el nuevo día,
Dm7
labios sin tiempo...
Am Am/G Am/F#
nubes vienen...
Fmaj7/C
trayendo mensajes,
E E7
de puerca, puerca, puerca... ahhhhh!

C Bm Am
Día de las lilas,
vas a hablar,
LA serpiente viaja,
por la sal...
nadie la acomete, a irse,
LA serpiente viaja,
por la sal...


Am!

E-0-3---/

(Con un poco de wah-wah)

e--------7-5------------------------------------------------/
b-------5----8-5----------------------------------6--4------/
g------5---------7---7p5----------5h7-5h7---9--7--5--2-----/ 2 Veces
d-----5---------------------7-5-------------9--5--7--4-----/
a--------------------------------7-------------------------/
E----------------------------------------------------------/

e--------7-5-------------------------------------------------/
b-------5----8-5--------------------------------------------/
g------5---------7---7p5----------5h7-5h7------9--9-------/
d-----5---------------------7-5----------------9--9-------/
a--------------------------------7-------------------------/
E----------------------------------------------------------/


Dm
Y en el nuevo día,
Dm7
del ocaso...
Am Am/G Am/F#
nubes vendrán...
Fmaj7/C E E7
trayendo mensajes...

C - Bm - Am (Más Lento)

e--------7-5------------------------------------------/
b-------5----8-5-------------------------------------/
g------5---------7---7p5-------------5h7-5h7--------/ Más Lento
d-----5---------------------7-5---------------------/
a--------------------------------7-------------------/
E----------------------------------------------------/

C - Bm - Am (Mas Lento) 2 Veces

G - F - G - F 4 Veces

C - Bm - Am (Mas Lento)

“Solo”

F - D -

D d --4--2-------------/
a --------5--4--3---/ C° 6 Veces
e ------------------/


G - F - G - F 4 Veces

C - Bm - Am
En el agua clara, del sol,
todos se lamentan,
por el bien...
unos en el cuerpo,
van a ver,
que la serpiente viaja,
por la sal...




Am!

E-0-3---/

(Con un poco de wah-wah)

e--------7-5------------------------------------------------/
b-------5----8-5----------------------------------6--4------/
g------5---------7---7p5----------5h7-5h7---9--7--5--2-----/ 2 Veces
d-----5---------------------7-5-------------9--5--7--4-----/
a--------------------------------7-------------------------/
E----------------------------------------------------------/

e--------7-5-------------------------------------------------/
b-------5----8-5--------------------------------------------/
g------5---------7---7p5----------5h7-5h7------9--9-------/
d-----5---------------------7-5----------------9--9-------/
a--------------------------------7-------------------------/
E----------------------------------------------------------/


Dm
Y el ocaso viaja
Dm7
viaja como el tiempo
Am Am/G Am/F#
y las nubes vendrán....
Fmaj7/C E E7
trayendo mensajes...

C - Bm - Am (Más Lento)

e--------7-5------------------------------------------/
b-------5----8-5-------------------------------------/
g------5---------7---7p5--------------5h7-5h7--------/ Más Lento
d-----5---------------------7-5---------------------/
a--------------------------------7-------------------/
E----------------------------------------------------/

C - Bm - Am (Mas Lento)

= X-3-4-2-4-x
Am/G= 3-X-2-2-1-0

////////////////// ¿Te Animas? Sube una canción a este sitio. //////////////////

ACORDES PARA GUITARRA

PIANO UKELELE
C
Bm
Am
Am
Dm
Dm7
Am/G
Am/F#
Fmaj7/C
E
E7
A
G
F
D
Cdim


COMENTARIOS

Aún no hay comentarios,

¡escribe el primero!

Escribe una pregunta, duda o comentario sobre esta canción, te responderemos a la brevedad.

Las canciones más tocadas de Luis Alberto Spinetta

Toca una Canción al Azar de Luis Alberto Spinetta
C
Bm
Am
Am
Dm
Dm7
Am/G
Am/F#
Fmaj7/C
E
E7
A
G
F
D
Cdim

04.55


Nuestro servidor se demoró 0.05 segundos en generar esta página. Eso fue realmente muy rápido!