Tu vuelo al fín
Luis Alberto Spinetta
Acordes

Subida por dj12
Álbum: Un mañana ( 2008)


Más Versiones
Ver. 2 Ver. 3 Ver. 4 Ver. 5

HERRAMIENTAS

Cambiar Cifrado
Americano Latino

Cambiar Tonalidad
-1 +1

Partir Pantalla Imprimir FAQ

Ver solo la LETRA

+A
-A

LETRA CON ACORDES

¿Tu Guitarra esta Afinada? PRUEBA NUESTRO NUEVO AFINADOR

Un temazo del disco "un mañana" del flaco.

Miren como estan formados los acordes, incluso hay dos acordes
de E en distintas posiciones los cuales llame E y E(p2), es el
mismo acorde pero armado de diferente forma.

En el disco hay mas de una guitarra, asi que hay cosas que estan
adaptadas para ser tocadas por una sola.

Correcciones, criticas y agradecimientos seran bien recibidos.


xx xx0 x 0 0 x 0 x 0 x 0
|||||| |||||| |||||| |||||| |0|||| |||||| ||||||
|||||| |||0|0 |0|0|0 |00||| ||0||| |||0|| |||0||
|||000 ||||0| ||||0| ||||0| |||00| ||||0| ||||0|
|||||| |||||| ||0||| |||||| |||||| ||0||| ||0|||
||0||| |||||| |||||| |||||| |||||| |0|||| |0||||vii
Gm D Bm7 Em7 A#-5 Dadd9 E(p2)

00 x 0 x0 0 x0 0 0 00 x 0 0 x 00
|||||| |||||| |||||| |||||| |||0|| ||||0| ||||||
0||||| v |0|0|| ||000| ||00|| |00||| ||0||| ||0|||
|||0|| ||||0| |||||| ||||0| |||||| |0|||| |0||||
|00||| ||0||| |||||| |||||| |||||| |||||| |||0||
|||||| |||||| |||||| |||||| |||||| |||||| ||||||
Aadd9 Bm7/11 A Asus4 E C Cmaj7



Gm
ahhh,
D
Dime que vez,
Bm7 Em7 A#-5
dime que quieres ahora.


Dadd9 E(p2) Aadd9
Vuelves de hablar con el mar
Gm Bm7/11
y acaso hay una luz
[Riff-1]
que asoma en la distancia.


Riff-1
[E] [A] [Asus4]
------------------------0---------
-----------------2---3-------3----
-----------------2-----------2----
-----------------2-----------2----
-2-2-0-2---2----------------------
---------0------------------------


Dadd9 E(p2) Aadd9
No sabes que no puedes cambiar,
[Riff-2]
aunque yo te haga mal
[Riff-3]
solo pensando inutilmente


Riff-2
F# Bm7
----------0-------------
--------2---3----3------
------3----------2------
--4-4------------4------
------------------------
------------------------


Riff-3
[E] [A] [Cmaj7]
------------------------------0----
-----------------2---------x--0----
-----------------2---------x--4----
-----------------2---------x--2----
-2-2-0-2---2------------------3----
---------0-------------------------


[Riff-4]
Descubre tu vuelo al fin
Descubre tu vuelo al fin
Descubre tu vuelo al fin

[Emaj15] [Bm7/11] [Emaj15] [Asus4] [Emaj15] [Bm7/11]
------0------------0-------0-------------0-------0------------0------------
--------4----------3---------4-----------3---------4----------3------------
----4-----4--------2-----4-----4---------2-----4-----4--------2------------
------------2------4--------------2------2--------------2-----4------------
---------------------------------------------------------------------------
---------------------------------------------------------------------------

A Asus4 E
Tu vuelo al fin, tu vuelo al fin


[Repite Estribillo]
Desnuda tu velo si
Desnuda tu velo si
Descubre tu vuelo al fin
Tu vuelo al fin, tu vuelo al fin


[Repite estrofa]
Hoy, que tu lagrima cayo
temblando en el desierto
que riegas vanamente

[Repite estrofa]
te sientes la aguja de un reloj
que no sabe marcar
y solo da las vueltas


[Repite Estribillo]
Descubre tu vuelo al fin
Descubre tu vuelo al fin
Descubre tu vuelo al fin
Tu vuelo al fin, tu vuelo al fin

[Repite Estribillo]
Desnuda tu velo si
Desnuda tu velo si
Descubre tu vuelo al fin
Tu vuelo al fin, tu vuelo al fin


C Dadd9 D E [Riff-5]
Tu vuelo al fin

Riff-5
[E]
--------------------
--------------------
----1/2-1-----------
----------2---------
--2---------2-------
--------------0-----

C Dadd9 D
Tu vuelo al fin

Riff-6
------------------------------------------------------------------------
------------------------------------------------------------------------
----------------------------------------------------------0-----0---1---
-----7-9-----------------------0-/4--2-1------------0---2-----2-----2---
---9------7H9P75-7--------0-2------------2-0-2----2---3-----5-------2---
---------------------0-2-2----------------------3-------------------0---


[Repite Intro]
Oh, dime que ves,
dime que quieres ahora

[Repite Estrofa]
vuelves de hablar con el mar
y acaso hay una luz
que asome a la distancia

[Repite Estrofa]
no sabes, que el universo sigue aquí
y nunca te importo,
pues solo le temiste

[Repite Estribillo]
Descubre tu vuelo al fin
Descubre tu vuelo al fin
Descubre tu vuelo al fin
Tu vuelo al fin, tu vuelo al fin

[Repite Estribillo]
Desnuda tu velo si
Desnuda tu velo si
Descubre tu vuelo al fin
Tu vuelo al fin, tu vuelo al fin

Tu vuelo al fin, sabes a lo que me refiero nena
tu vuelo al fin..

[Despues va jugando con el Riff-6 y toca un solo por arriba]


Nota: En el Riff-6, en el primer compas hay una guitarra que hace
lo mismo una octava arriba.

////////////////// ¿Te Animas? Sube una canción a este sitio. //////////////////

ACORDES PARA GUITARRA

PIANO UKELELE
Gm
D
Bm7
Em7
A#
Dadd9
E
Aadd9
Bm11
A
Asus4
C
Cmaj7
F#


COMENTARIOS

Aún no hay comentarios,

¡escribe el primero!

Escribe una pregunta, duda o comentario sobre esta canción, te responderemos a la brevedad.

Las canciones más tocadas de Luis Alberto Spinetta

Toca una Canción al Azar de Luis Alberto Spinetta
Gm
D
Bm7
Em7
A#
Dadd9
E
Aadd9
Bm11
A
Asus4
C
Cmaj7
F#

02.24


Nuestro servidor se demoró 0.06 segundos en generar esta página. Eso fue realmente muy rápido!