Yo miro tu amor

Luis Alberto Spinetta

Acordes

Para los árboles (2003)
Subida por Maxwell


Más Versiones
Ver. 2 Ver. 3

Cambiar Cifrado
Americano Latino

Cambiar Tonalidad
-1 +1

Partir Pantalla Imprimir FAQ

+A
-A


Ver solo la LETRA
El fraseo de la intro es:



E------------------------------------------------------------------------
B------------------------------------------------------------------------
G------------------------------------------------------------------------
D-------------------5----------------------------------------------------
A-----------------------7------------------------------------------------
E-----7---5---5b---------------------------------------------------------


Riff:

E---------------0--0--0---------------------------------------------------
B-----2/3-------3--3--3---------------------------------------------------
G------3/4-----------------4/2---0--------0--2/4--------------------------
D-------------------------------------2----------2--2---------------------
A-------------------------------------------------------------------------
E-------------------------------------------------------------------------

E---------------0--0--0---------------------------------------------------
B-----2/3-------3--3--3---------------------------------------------------
G------3/4-----------------4/2---0--------0--2/4--------------------------
D-------------------------------------2----------2--2---------------------
A-------------------------------------------------------------------------
E-------------------------------------------------------------------------

E---------------0--0--0---------------------------------------------------
B-----2/3-------3--3--3---------------------------------------------------
G------3/4-----------------4/2---0--------0--2/4--------------------------
D-------------------------------------2----------2--2---------------------
A-------------------------------------------------------------------------
E-------------------------------------------------------------------------
C#7/#9 C#7/#9 D7/#9 Eb7/#9

E---------------------------------------------x------x-------x------x-----
B---------------------------------------------5------5-------6------7-----
G---------------------------------------------4------4-------5------6-----
D-------0-2-0-------0-------------------------3------3-------4------5-----
A--------------2-0-----2-1-0------------------4------4-------5------6-----
E-----------------------------3b---0----------x------x-------x------x-----

Eb7/#9 C#7/#9

En tanto que la lluvia así
B A5

lava mis desgracias
G5 A5

yo miro tu amor


(Riff)


Hay un dogo que me asusta, nena

quizas inutilmente

apuro mi paso

(Riff)


(Solo)


(Riff)


Violento mediodia gris

la radio pone fuego

a la lenta cumbia.


Notas:

El solo se puede tocar en pentatonica menor de Mi, con notas agregadas especialmente de
escalas de blues y del modo dorico.

/ significa slide, o sea, deslizarse de una nota a otra utilizando el mismo dedo.

b significa bend, o sea, estirar una nota (medio tono).


Acordes:


Eb7/#9 C#7/#9 B5 A5 G5

E----x-------x-------x------x---X---
B----7-------5-------X------X---X---
G----6-------4-------4------X---X---
D----5-------3-------4------7---5---
A----6-------4-------2------7---5---
E----x-------x-------x------5---3---




A los que hayan sacado algun otro tema de Para Los Arboles por favor mandenmelo.


NUEVO FORO DE MÚSICA

¿Tienes alguna duda, consulta, pregunta, consejo o algo para compartir sobre esta canción?

¡Puedes abrir un hilo en el FORO para que la comunidad te ayude! Hacer una pregunta

ACORDES PARA GUITARRA

PIANO UKELELE
C#7#9
D7#9
B
A5
G5
B5


Las más tocadas de Luis Alberto Spinetta

C#7#9
D7#9
B
A5
G5
B5