Get Older

Matthew Sweet

Acordes

100% Fun (1995)
Subida por Domingo



Cambiar Cifrado
Americano Latino

Cambiar Tonalidad
-1 +1

Partir Pantalla Imprimir FAQ

+A
-A


Ver solo la LETRA

#

# http://*~cbray/sweet/
#
# If you have any corrections or additions to this file, please email them
# to *
#


From: [email protected]*

the chords offhand, but it's in the key of G. I think
it's G, D, C and Em in some order. I'm sure you could figure it out in a
few seconds.

E |-----5--------|--------------|
B |---0-----0-2--|-2-3----------|
G |-0-----0------|-----2--------|
D |--------------|-------4-2-0--|
A |--------------|--------------|
E |--------------|--------------|

The opening solo begins:

E |---17--17--17--17|
B |-19--17--16--14--|
G |-----------------|
D |-----------------|
A |-----------------|
E |-----------------|

NUEVO FORO DE MÚSICA

¿Tienes alguna duda, consulta, pregunta, consejo o algo para compartir sobre esta canción?

¡Puedes abrir un hilo en el FORO para que la comunidad te ayude! Hacer una pregunta

ACORDES PARA GUITARRA

PIANO UKELELE


Las más tocadas de Matthew Sweet