Super Baby

Matthew Sweet

Acordes

100% Fun (1995)
Subida por lufher2083



Cambiar Cifrado
Americano Latino

Cambiar Tonalidad
-1 +1

Partir Pantalla Imprimir FAQ

+A
-A


Ver solo la LETRA

#

# http://*~cbray/sweet/
#
# If you have any corrections or additions to this file, please email them
# to *
#


Tab by: Chris Bray (*)
Tab Corrections by: Patrick C. Cevasco (*)


Riff A: (prebend 1/2)
E-------|-------------------------pb11r-------------|
B-------|-------------------------------------------|
G-------|-------------------------------------------|
D-------|-------------------------------------------|
A-------|---------7b-r------------------------------|
E---0-0-|--3b-r---------0-0---------------12b-r-b-0-|
^(1/2) ^
|__(whole step)

So pick the E twice, bend the G to a G# and release, bend the E on the
A string to an F# and release, play the E twice again, prebend the D#
on the 11th fret of the high e to an E then pick the note and release
it, followed by picking the E on the 12th fret of the E string followed
by a bend, a release and a bend again, then without releasing the bend
pick the low E string and repeat from the G note.


Riff B:
E----------------------------|
B--11h12-11h12-11------------|
G-------------------12--11v--|
D----------------------------|
A----------------------------|
D----------------------------|


Riff C:
E|---------------------|------------|------------------------|
B|---------------------|-- play 3 --|------------------------|
G|o--------------------|-- times ---|------------------------|
D|o--------------------|-- then: ---|------------------------|
A|----5h7-5-7-5--------|------------|---5h7-5-7-5------------|
D|----------------7-5--|------------|----------------7--2---|


Intro: Riff A (x 4)


{Riff A}
No Memory
Is quite the same
No gentle breeze
Can ease my pain


{Riff B}
Lover you're the one
Super baby
You're the one
Super baby
You're the one

A G
Promise you won't go far
A G
I want you right where you are
A G
I said it to your face
A G
So it cannot be erased now


{Riff A x 2}


{Riff A}
I got a hold
On destiny
Yeah I hear the sound
Of Liberty


{Riff B}
Lover you're the one
Super baby
You're the one
Super baby
You're the one

A G
Promise you won't go far
A G
I want you right where you are
A G
I said it to your face
A G
So it cannot be erased now


{Solo over Riff A}


{Riff A}
A mountain higher
Than my dream
A dawn on fire
You will sing
You will sing


{Riff B}
Lover you're the one
Super baby
You're the one
Super baby
You're the one

A G
Promise you won't go far
A G
I want you right where you are
A G
I said it to your face
A G
So it cannot be erased now


{Ending: Riff C}

NUEVO FORO DE MÚSICA

¿Tienes alguna duda, consulta, pregunta, consejo o algo para compartir sobre esta canción?

¡Puedes abrir un hilo en el FORO para que la comunidad te ayude! Hacer una pregunta

ACORDES PARA GUITARRA

PIANO UKELELE


Las más tocadas de Matthew Sweet