Canção do Apocalipse (Acordes)

Ministério Avivah

Subida por d47studios

Compartir


Cambiar Cifrado
Americano Latino

Cambiar Tonalidad
-1 +1
Imprimir FAQ
+A
-A

Texto

Desplazamiento

Transportador

Color de Fondo

Archivos

TONALIDAD, TAMAÑO, CIFRADO, SCROL.

Nos renovamos: Ahora puedes cambiar TODO haciendo clic en ICONO de la Guitarra () que aparece en la parte inferior de esta página.


LETRA CON ACORDES

[Intro]  D9  Am7  C9  G

[Primeira Parte]

D9                   Am7
  Digno é o Cordeiro, que foi morto
C9                 G
  Santo, Santo Ele é
D9                Am7
  Um novo cântico, ao que se assenta
C9                  G
  Sobre o trono do céu

[Refrão]

D9
  Santo, Santo, Santo
Am7
  Deus Todo Poderoso
C9                       G
  Que era, e é, e há de vir
D9
  Com a criação eu canto
Am7
  Louvores ao Rei dos reis
C9
  És tudo para mim
  G
E eu Te adorarei

D9  Am7  C9  G )

[Segunda Parte]

D9             Am7
  Está vestido, do arco-íris
C9                          G
  Sons de trovão, luzes, relâmpagos
D9
  Louvores, honra e glória
Am7
  Força e poder pra sempre
C9                    G
  Ao único Rei eternamente

[Refrão]

D9
  Santo, Santo, Santo
Am7
  Deus Todo Poderoso
C9                       G
  Que era, e é, e há de vir
D9
  Com a criação eu canto
Am7
  Louvores ao Rei dos reis
C9
  És tudo para mim
  G
E eu Te adorarei

[Solo 1]  D9  Am7  C9  G
          D9  Am7  C9  G  D9

Parte 1 de 2

E|----------------------------------------------------|
B|-5-7-5-7-7-7/10-10-10---3-5-3-5-5-5/8-8------------|
G|----------------------------------------------------|
D|----------------------------------------------------|
A|----------------------------------------------------|
E|----------------------------------------------------|

Parte 2 de 2

E|----------------------------------------------------|
B|-3-5-3-5-5-5/8-8------------------------------------|
G|------------------2-2/4-4-4-4-4-4-4-4---------------|
D|----------------------------------------------------|
A|----------------------------------------------------|
E|----------------------------------------------------|

Parte 3 de 4

E|----------------------------------------------------|
B|-5-7-5-7-7-7/10-10-10---3-5-3-5-5-5/8-8------------|
G|----------------------------------------------------|
D|----------------------------------------------------|
A|----------------------------------------------------|
E|----------------------------------------------------|

Parte 4 de 4

E|----------------------------------------------------|
B|-3-5-3-5-5-5/8-8--------------------------3---------|
G|------------------2-2/4-4-4-4-4-4-4-4----2---------|
D|------------------------------------------0---------|
A|----------------------------------------------------|
E|----------------------------------------------------|

[Ponte]

D9            Am7
  Maravilhado, extasiado
C9                      G
  Eu fico ao ouvir Teu nome

[Solo 2]  Am7  F  C9  G
          Am7  F  C9  G
          Am7  F  C9  G
          Am7  F  C9  G
          Am7  F  C9  G
          Am7  F  C9  G

Parte 1 de 2

E|----------------------------------------------------|
B|-13-13-13-12-12-8-8-8-13-13-13-12-12-8-8------------|
G|----------------------------------------------------|
D|----------------------------------------------------|
A|----------------------------------------------------|
E|----------------------------------------------------|

Parte 2 de 2

E|----------------------------------------------------|
B|------------------8---------------------8-----------|
G|----7-9--7-9--7-9---9-----7-9--7-9--7-9---9---------|
D|-10--------------------10-------------------10------|
A|----------------------------------------------------|
E|----------------------------------------------------|

[Ponte]

D9            Am7
  Maravilhado, extasiado
C9                      G
  Eu fico ao ouvir Teu nome
D9
  Jesus, Teu nome é força
Am7
  É fôlego de vida
C9                 G
  Misteriosa água viva

[Refrão]

D9
  Santo, Santo, Santo
Am7
  Deus Todo Poderoso
C9                       G
  Que era, e é, e há de vir
D9
  Com a criação eu canto
Am7
  Louvores ao Rei dos reis
C9
  És tudo para mim
  G           D9
E eu Te adorarei

Video Clip de Canção do Apocalipse


ACORDES PARA GUITARRA

PIANO UKELELE
D9
Am7
C9
G
F


TOP 20: Las más tocadas de Ministério Avivah


Acordes

Cerrar
D9
Am7
C9
G
F

05.50

x

167