Pra Sempre (Forever) (Acordes)

Ministério Avivah

Subida por FabioMusica

Compartir


Cambiar Cifrado
Americano Latino

Cambiar Tonalidad
-1 +1
Imprimir FAQ
+A
-A

Texto

Desplazamiento

Transportador

Color de Fondo

Archivos

TONALIDAD, TAMAÑO, CIFRADO, SCROL.

Nos renovamos: Ahora puedes cambiar TODO haciendo clic en ICONO de la Guitarra () que aparece en la parte inferior de esta página.


LETRA CON ACORDES

[Intro]  G  D  Am  C
         G  D  Am  C

E|----------------------------------------|
B|-7-8----12--7----7-8---12---5-----------|
G|----------------------------------------|  (2x)
D|----------------------------------------|
A|-5-10---10--5----9-10---10--3-----------|
E|----------------------------------------|

[Primeira Parte]

G              D               Em
  O universo chora, o sol se apagou
            C
Ali estava morto o salvador
G                   D                    Em
  Seu corpo lá na cruz, seu sangue derramou
             C
O peso do pecado Ele levou

G  D  Am  C )

E|----------------------------------------|
B|-7-8----12--7----7-8---12---5-----------|
G|----------------------------------------|
D|----------------------------------------|
A|-5-10---10--5----9-10---10--3-----------|
E|----------------------------------------|

G                   D
  Deus pai o abandonou
               Em
Cessou o respirar
                 C
Em trevas encontrou o filho
G               D
  A guerra começou
               Em
A morte enfrentou
                   C             G
Todo o poder das trevas vencido foi

[Pré-Refrão]

G                 D
  A terra estremeceu
                 Em
O sepulcro se abriu
             C
E nada vencerá seu grande amor
G                  D
  Ó morte, onde estás?
               Em
O Rei ressuscitou!
                C
Ele venceu pra sempre

[Refrão]

     G          D
Pra sempre exaltado é
     Em        C
Pra sempre adorado é
     G          D
Pra sempre ele vive
         Em           C
Ressuscitou, ressuscitou

[Pré-Refrão]

G                 D
  A terra estremeceu
                 Em
O sepulcro se abriu
             C
E nada vencerá seu grande amor
G                  D
  Ó morte, onde estás?
               Em
O Rei ressuscitou!
                C
Ele venceu pra sempre

[Refrão]

     G          D
Pra sempre exaltado é
     Em        C
Pra sempre adorado é
     G          D
Pra sempre ele vive
         Em           C
Ressuscitou, ressuscitou

[Solo] G  D  Em  C
       G  D  Em  C

E|-------------------------------------------|
B|13-13-12-12-12-1210-10--------------------|
G|-------------------------------------------|
D|-------------------------------------------|
A|-------------------------------------------|
E|-------------------------------------------|

E|-------------------------------------------|
B|13-13-12-12-12-12-10/13--------------------|
G|-------------------------------------------|
D|-------------------------------------------|
A|-------------------------------------------|
E|-------------------------------------------|

E|-------------------------------------------|
B|13-13-12-12-12-1210-8-10/12-12-8-10/12-13-|
G|-------------------------------------------|
D|-------------------------------------------|
A|-------------------------------------------|
E|-------------------------------------------|

G  D  Em  C )

[Ponte]

G              D
  Cantamos aleluia
             Em
Cantamos aleluia
             C
Cantamos aleluia
O cordeiro venceu
G              D
  Cantamos aleluia
             Em
Cantamos aleluia
             C
Cantamos aleluia
O cordeiro venceu
G              D
  Cantamos aleluia
             Em
Cantamos aleluia
             C
Cantamos aleluia
O cordeiro venceu
G              D
  Cantamos aleluia
             Em
Cantamos aleluia
             C
Cantamos aleluia
O cordeiro venceu

[Refrão]

     G          D
Pra sempre exaltado é
     Em        C
Pra sempre adorado é
     G          D
Pra sempre ele vive
         Em           C
Ressuscitou, ressuscitou
     G          D
Pra sempre exaltado é
     Em        C
Pra sempre adorado é
     G          D
Pra sempre ele vive
         Em           C
Ressuscitou, ressuscitou

[Solo] G  D  Em  C

E|-------------------------------------------|
B|13-13-12-12-12-1210-10--------------------|
G|-------------------------------------------|
D|-------------------------------------------|
A|-------------------------------------------|
E|-------------------------------------------|

E|-------------------------------------------|
B|13-13-12-12-12-12-10/13--------------------|
G|-------------------------------------------|
D|-------------------------------------------|
A|-------------------------------------------|
E|-------------------------------------------|

E|-------------------------------------------|
B|13-13-12-12-12-1210-8-10/12-12-8-10/12-13-|
G|-------------------------------------------|
D|-------------------------------------------|
A|-------------------------------------------|
E|-------------------------------------------|

Video Clip de Pra Sempre (Forever)


ACORDES PARA GUITARRA

PIANO UKELELE
G
D
Am
C
Em


TOP 20: Las más tocadas de Ministério Avivah


Acordes

Cerrar
G
D
Am
C
Em

12.37

x

129