Rocha Eterna (Acordes)

Ministério Avivah

Subida por manitas

Compartir


Cambiar Cifrado
Americano Latino

Cambiar Tonalidad
-1 +1
Imprimir FAQ
+A
-A

Texto

Desplazamiento

Transportador

Color de Fondo

Archivos

TONALIDAD, TAMAÑO, CIFRADO, SCROL.

Nos renovamos: Ahora puedes cambiar TODO haciendo clic en ICONO de la Guitarra () que aparece en la parte inferior de esta página.


LETRA CON ACORDES

[Intro] Em  C  G  D
        Em  C  G  D

E|-------3---5----------------3/---7------------------|
B|---3-5--------5~-3~-----3-5---------7~--------------|
G|-4--------------------4-----------------------------| (2x)
D|----------------------------------------------------|
A|----------------------------------------------------|
E|----------------------------------------------------|

[Primeira Parte]

 Em
Rocha eterna
    C             G      D
Em Ti, firmo os meus pés
 Em          C
Não me abalarei
       G     D
Seguro estou
 C
Não vou temer
 D               Em  G/B
Se o dia mau chegar
C
Oh meu Senhor
D                 Em  D
Eu me escondo em Ti

[Refrão]

          G  D
Em Ti confio
            Em  C
Tu és meu protetor
          G
Canto aleluia
   D            C
A Ti, meu Salvador
         G    D
O meu refúgio
           Em   C
E o meu socorro és
          G
Canto aleluia
   D            C
A Ti, meu Salvador

Em  C  G  D )

[Primeira Parte]

 Em
Rocha eterna
    C             G      D
Em Ti, firmo os meus pés
 Em          C
Não me abalarei
       G     D
Seguro estou
 C
Não vou temer
 D               Em  G/B
Se o dia mau chegar
C
Oh meu Senhor
D                 Em  D
Eu me escondo em Ti

[Refrão]

          G  D
Em Ti confio
            Em  C
Tu és meu protetor
          G
Canto aleluia
   D            C
A Ti, meu Salvador
         G    D
O meu refúgio
           Em   C
E o meu socorro és
          G
Canto aleluia
   D            C
A Ti, meu Salvador

G  Bm  Em  C )

[Ponte]

Riff 1
E|----------------------------------------------------|
B|-8-8-8-8-8-8-8-8-8/12-12-12-12---------------------|
G|----------------------------------------------------| (3x)
D|----------------------------------------------------|
A|----------------------------------------------------|
E|----------------------------------------------------|

E|----------------------------------------------------|
B|-8-8-8-8-8-8-8-8-8-7-7-7----------------------------|
G|----------------------------------------------------|
D|----------------------------------------------------|
A|----------------------------------------------------|
E|----------------------------------------------------|

    G        Bm
Aleluia, Aleluia
    Em         C
Aleluia, Aleluia
    G        Bm
Aleluia, Aleluia
    Em         C
Aleluia, Aleluia

G   C    D   G
Aleluia, Aleluia
Em  C    D   C
Aleluia, Aleluia

[Refrão]

          G  D
Em Ti confio
            Em  C
Tu és meu protetor
          G
Canto aleluia
   D            C
A Ti, meu Salvador
         G    D
O meu refúgio
           Em   C
E o meu socorro és
          G
Canto aleluia
   D            C
A Ti, meu Salvador
          Em
Canto aleluia
   D            C
A Ti, meu Salvador

Video Clip de Rocha Eterna


ACORDES PARA GUITARRA

PIANO UKELELE
Em
C
G
D
G/B
Bm


TOP 20: Las más tocadas de Ministério Avivah


Acordes

Cerrar
Em
C
G
D
G/B
Bm

21.17

x

146