Paso la vida pensando

Nicho Hinojosa

Acordes

En el bar 2 (2001)
Subida por rlcalderon1


Más Versiones
Ver. 2 Ver. 3 Ver. 4 Ver. 5 Ver. 6

Cambiar Cifrado
Americano Latino

Cambiar Tonalidad
-1 +1

Partir Pantalla Imprimir FAQ

+A
-A


Ver solo la LETRA
Que honda bandera ahi esta la rola komo la toco en las rutas y
tambn asi la toca nicho hinojosa ehhh.


6-------------------------------------------------------------
5---3-----------------3------------------3--------------------
4--------------------------------------------2---------2------
3---------------0-------------------0-------------0-----0-----
2-------1--3-----------------1--3------------------------1----
1---0-----------------0-----------------------------------3---

6-------------------------------------------------------------
5---3-----------------3----------------3----------------------
4-----------------------------------------2------2------------
3--------------0------------------0----------0----0-----------
2-------1--3---------------1--3--------------------1----------
1---0-----------------0-----------------------------0---------

C
yo te llevo
Am
muy dentro de mi
Dm
la locura
G
que vivi por ti
C
aun se alberga
Am
en mi corazon
Dm
te deje partir
G
no me explico la razon

CORO:
por que
C
paso la vida pensando
Am
paso las noches soñando
Dm G
con tu amor, yeh yeh.

por que
C
paso la vida pensando
Am
paso las noches soñando
Dm
con tu amor
G
con tu amor
C
con tu amor.

6-------------------------------------------------------------
5---3-----------------3------------------3--------------------
4--------------------------------------------2---------2------
3---------------0-------------------0-------------0-----0-----
2-------1--3-----------------1--3------------------------1----
1---0-----------------0-----------------------------------3---

6-------------------------------------------------------------
5---3-----------------3----------------3----------------------
4-----------------------------------------2------2------------
3--------------0------------------0----------0----0-----------
2-------1--3---------------1--3--------------------1----------
1---0-----------------0-----------------------------0---------



C
fue mi orgullo
Am
o mi estupidez
Dm
que me entropecio
G
no tuve sensatez.

C
Quiza no supe
Am
valorar tu amor,
Dm
y aunque te ofendi
G
te suplico tu perdon.

(CORO)

Dm
vienen a mi mente tantas cosas
Em
que ni yo me puedo perdonar,
Dm
pero nunca, nunca,
Dm-G
te eh dejado de amar

C
yo te llevo
Am
muy dentro de mi,
Dm
y si tu me llevas
G
muy dentro de ti

C
los dos sufrimos
Am
igual decepcion
Dm
el separarnos
G
fue una tonta desicion

(COROx2)


bueno ps ahi esta espero k les guste y no lloren.


NUEVO FORO DE MÚSICA

¿Tienes alguna duda, consulta, pregunta, consejo o algo para compartir sobre esta canción?

¡Puedes abrir un hilo en el FORO para que la comunidad te ayude! Hacer una pregunta

ACORDES PARA GUITARRA

PIANO UKELELE
C
Am
Dm
G
Em


Las más tocadas de Nicho Hinojosa

C
Am
Dm
G
Em