Entre la espada y la pared

Nicole Pillman

Acordes

Subida por Pollo503


Más Versiones
Ver. 2 Ver. 3 Ver. 4

Cambiar Cifrado
Americano Latino

Cambiar Tonalidad
-1 +1

Partir Pantalla Imprimir FAQ

+A
-A


Ver solo la LETRA
Aquí les deje esta canción de la gran Nicole Pillman:

ENTRE LA ESPADA Y LA PARED

e|----------3--------------3---------------3---0h1-0-1-0---------|
B|--1h3-1---1------1h3-1---1--------0-1--1---------------1-------|
G|--------0--------------0-------2-----2-------------------2-----|
D|---------------------------------------------------------------|
A|---------------------------------------------------------------|
E|---------------------------------------------------------------|

C Am
Cómo escaparme de tu lado
C Am
Cómo olvidarme del ayer
F C
Cómo borrar de mi pasado
F Am
La ternura de tus manos
F G
La textura de tu piel

C Am
Cómo podré empezar de nuevo
C Am
Si sigues vivo aquí en mi ser
F C
Encadenado a mi memoria
F Am
Yo sigo igual en esta historia
F C
Entre la espada y la pared

F G Am7
Es que si yo vuelvo contigo
F G Am7
Tu seguirás matandome
F C
Con tus mentiras y maldades
F Am7
Con tus infidelidades
F G
Ya no sé que voy hacer

F G Am7
Pero si escapo de tu lado
F G Am7
Sé que sin ti me morire
F C
Es que te amo demasiado
F Am7
Y se que sola me he quedado
F C
Entre la espada y la pared


e|------------------3-1-0-1-1-0----3----------|
B|--------1------1--------------1--3----1-----|
G|------0------2----------------------0-------|
D|----2------2--------------------------------|
A|--3------0----------------------------------|
E|--------------------------------------------|


C Am
Yo ya no se que es mas terrible
C Am
Si estar contigo o sin ti
F C
Sé que tendre que decidirme
F Am
Si quedarme o si irme
F G
Ya no se que voy hacer


F G Am7
Es que si yo vuelvo contigo
F G Am7
Tu seguirás matandome
F C
Con tus mentiras y maldades
F Am7
Con tus infidelidades
F G
Ya no sé que voy hacer

F G Am7
Pero si escapo de tu lado
F G Am7
Sé que sin ti me moriré
F G Am
Es que te amo demasiado
F C
Y se que sola me he quedado
F G
Entre la espada y la pared
F G
Sé que sola me he quedado
F C
Entre la espada y la pared


e|---------------------------------0----|
B|--------1---1-----1----------1-0-1----|
G|------0-------0----------0-------0----|
D|----2-----------2------2---2----------|
A|--3------------------3----------------|
E|--------------------------------------|




by
DANNY C.
[email protected]


NUEVO FORO DE MÚSICA

¿Tienes alguna duda, consulta, pregunta, consejo o algo para compartir sobre esta canción?

¡Puedes abrir un hilo en el FORO para que la comunidad te ayude! Hacer una pregunta

ACORDES PARA GUITARRA

PIANO UKELELE
C
Am
F
G
Am7


Las más tocadas de Nicole Pillman

C
Am
F
G
Am7