Perdóname

Nicole Pillman

Acordes

Subida por Nicosax


Más Versiones
Ver. 2 Ver. 3

Cambiar Cifrado
Americano Latino

Cambiar Tonalidad
-1 +1

Partir Pantalla Imprimir FAQ

+A
-A


Ver solo la LETRA
Hola amigos de la cuerda.net, aqui les envío lo que sería mi
segundo aporte de esta talentosa cantante peruana

Espero les guste mi versión, saludos

Intro:

E-|--------------------------------------------
B-|--------------------------------------------
G-|------------------14^14-15-17-15-17-14-17-14
D-|--------------------------------------------
A-|--------------------------------------------
E-|--------------------------------------------

E-|--------------------------------------------
B-|--------------------------------------------
G-|---------14^14-15-17-15-17-14-17-14-17-19-17
D-|--------------------------------------------
A-|--------------------------------------------
E-|--------------------------------------------

Gm Cm
Perdóname por no saber
Gm
valorar lo que me dabas
Cm
Por no mirarte a la cara
Gm
al decir adiós

Gm Cm
Perdóname, amor no sé
Gm
estaba tan confundida
Cm
No escuché lo que decías,
Gm
ese fue mi error

Gm
Y ahora que
Cm
estoy arrepentida

No comprendo la ironia
C# A
De saber perder

Bm
Perdóname esta vez…
E A
Dame la oportunidad
Bm
Demostrarte
E
Que nada será como antes

Bm
Perdóname esta vez…
E A
Dame la oportunidad
Bm
Te extraño
E
Aaaaaún……te amo

Aqui se repite la segunda parte del intro:

E-|--------------------------------------------
B-|--------------------------------------------
G-|---------14^14-15-17-15-17-14-17-14-17-19-17
D-|--------------------------------------------
A-|--------------------------------------------
E-|--------------------------------------------
Gm
Pero ya vez
Cm
que absurda es la vida

Te enseña con heridas
C# A
lo sé muy bien

Bm
Perdóname esta vez…
E A
Dame la oportunidad
Bm
Demostrarte
E
Que nada será como antes

Bm
Perdóname esta vez…
E A
Dame la oportunidad
Bm
Te extraño
E
Aaaaaún……te amo

Cm
Sácame de esta oscuridad
Gm
Rompe de nuevo aquel cristal
Cm
De mi soledad
Gm
Libérame de este dolor
Cm
Mi vida sin tu amor
Gm
No es vida ya

Aquí sube un tono:

E A
Perdóname esta vez…
C#m
Dame la oportunidad
G#m
Demostrarte
E
Que nada será como antes

A
Perdóname esta vez…
C#m
Dame la oportunidad
G#m
Déjame amarte…
E
quiero recuperarte
C#m
Perdóname esta vez

E A
Perdóname esta vez…
C#m
Dame la oportunidad
G#m C#m
Te extraño, aún...te amo

Final:

E-|--------------------------------------------
B-|--------------------------------------------
G-|---------14^14-15-17-15-17-14-17-14-17-19-17
D-|--------------------------------------------
A-|--------------------------------------------
E-|--------------------------------------------


NUEVO FORO DE MÚSICA

¿Tienes alguna duda, consulta, pregunta, consejo o algo para compartir sobre esta canción?

¡Puedes abrir un hilo en el FORO para que la comunidad te ayude! Hacer una pregunta

ACORDES PARA GUITARRA

PIANO UKELELE
Gm
Cm
C#
A
Bm
E
C#m
G#m


Las más tocadas de Nicole Pillman

Gm
Cm
C#
A
Bm
E
C#m
G#m