Nada me sale bien

Nihilismo

Acordes

Subida por Carlosj07


Más Versiones
Ver. 2

Cambiar Cifrado
Americano Latino

Cambiar Tonalidad
-1 +1

Partir Pantalla Imprimir FAQ

+A
-A


Ver solo la LETRA
Riff 1
A E F# A E F# A B A G# F# E
e|-------------------------------------------------|
B|-------------------------------------------------|
G|-------------------------------------------------|
D|-------------------------------------------------|
A|-----------------------------------2-------------|
E|---5-5-0-2-2-2---5-5-0-2-2-2---5-5---5--4--2--0--|

Riff 2
G# E F# G# E F# G# E F# G# A
e|-------------------------------------------------|
B|-------------------------------------------------|
G|-------------------------------------------------|
D|-------------------------------------------------|
A|-------------------------------------------------|
E|---4-4-0-2-2-2---4-4-0-2-2-2---4-4-0-2-2--4--5---|

___
Nada me sale bien |
nada que intente | Sobre Riff 1
lo malo no puedo evitar ___|
___
si con el tiempo yo |
nunca borre el dolor | Sobre Riff 2
es muy dura mi verdad ___|
___
Entre lineas yo |
puedo ver tu rencor | Sobre Riff 1
ser asi no puedo evitar ___|
___
¿quien tiene culpa aca? |
¿quien dice la verdad? | Sobre Riff 2
¿a quien pretendo engañar? ___|

D A
No me supieron escuchar
E A
o soy quien no sabe decir
D A
nadie que me sepa comprender
E A
muerto en vida para que seguir

D A
Intenete no fracasar
E A
y me quede en la mitad
D A
mi amiga la soledad
E A
una birra me convidara

Inter

A E F# A E F# A E F# E E E E E
e|------------------------------------------------------------|
B|------------------------------------------------------------|
G|---------------------------------------------9--9--9--9--9--|
D|---------------------------------------------9--9--9--9--9--|
A|---------------------------------------------7--7--7--7--7--|
E|---5-5-0-2-2-2---5-5-0-2-2-2---5-5-0-2-2-2------------------|

G# E F# G# E F# G# E F# A A A A A
e|------------------------------------------------------------|
B|------------------------------------------------------------|
G|------------------------------------------------------------|
D|---------------------------------------------7--5--5--5--5--|
A|---------------------------------------------7--5--5--5--5--|
E|---4-4-0-2-2-2---4-4-0-2-2-2---4-4-0-2-2-2---5--5--5--5--5--|

D A
No me supieron escuchar
E A
o soy quien no sabe decir
D A
nadie que me sepa comprender
E A
muerto en vida para que seguir

D A
Intenete no fracasar
E A
y me quede en la mitad
D A
mi amiga la soledad
E A
una birra me convidara
E A
una roche me convidara
E A
poxi ran me convidara


Espero ke les sirva... un saludo..
Jon Ibarra


NUEVO FORO DE MÚSICA

¿Tienes alguna duda, consulta, pregunta, consejo o algo para compartir sobre esta canción?

¡Puedes abrir un hilo en el FORO para que la comunidad te ayude! Hacer una pregunta

ACORDES PARA GUITARRA

PIANO UKELELE
A
E
F#
B
G#
D


Las más tocadas de Nihilismo

A
E
F#
B
G#
D