No me importa

Nihilismo

Acordes

Subida por Danielsosa


Más Versiones
Ver. 2 Ver. 3

Cambiar Cifrado
Americano Latino

Cambiar Tonalidad
-1 +1

Partir Pantalla Imprimir FAQ

+A
-A
INTRO: F C G C (X2)
C
ya me canse de tus sermones
G
de ke me digan lo que tengo que ke hacer
G
kee trabaje keres que estudie
C
y vos ke karajo haces?
C
ya me canse de tus sermones
G
de ke me digan lo que tengo que ke hacer
G
ke trabaje keres ke estudie
C
nena, dejate de joder
F C
si no me importa tu opinion
G C
dejame ser como soy
F C
si no me importa tu opinion
G C
dejame ser komo soy

G----------------------------------------------------
D--------1-5--------1-5--1-1-0-0---------------------
A--1-1-1------1-1-1--------------3-3-1---------------
E----------------------------------------------------

G------------------------3-5-3-1-0-------------------
D--------0-3--------0-3-------------3-1--------------
A--1-1-1------1-1-1----------------------------------
E----------------------------------------------------


[email protected]


NUEVO FORO DE MÚSICA

¿Tienes alguna duda, consulta, pregunta, consejo o algo para compartir sobre esta canción?

¡Puedes abrir un hilo en el FORO para que la comunidad te ayude! Hacer una pregunta

ACORDES PARA GUITARRA

PIANO UKELELE
F
C
G


Las más tocadas de Nihilismo

F
C
G