No tengo enemigos, solo amigos que me odian

Nihilismo

Acordes

Subida por Scott


Más Versiones
Ver. 2 Ver. 3

Cambiar Cifrado
Americano Latino

Cambiar Tonalidad
-1 +1

Partir Pantalla Imprimir FAQ

+A
-A


Ver solo la LETRA
SAKADA POR:NIKOLAS GIMENEZ  (san luis capital)

intro:D5-G5-A5-D5 X4


]------------------------------------------------------
]------------------------------------------------------
]------------------------------------------------------
]------4--------------------------4--5-5-7-5-4--2------
]--5-5---5-------------4-5-5---5-5-5--------------5-5--
]-5----------5-5--0-5-5-5---5--------------------------X2...


D5 G5
esta fea cancion
A5 D5
alguna historia cuenta
D5 G5
de jente muy falsa
A5 D5
trucha y careta


D5 G5
toda esta jente
A5 D5
q te estoy contando
D5 G5
agacha la kabeza
A5 D5
cuando paso a tu lado


D5 G5
te llena la boca
A5 D5
dice q te kiere
D5 G5
y si hace algo mal
A5 D5
te condenan y te hieren


D5 G5
si te ekibocaste
A5 D5
siempre lo reprochan
D5 G5
y te hechan en cara
A5 D5
siempre todas las cosas



D5 G5 A5 D5
no tengo enemigos, solo amigos q me odian
D5 G5 A5 D5
q triste aver confiado, aver sido tan idiota
D5 G5 A5 D5
no tengo enemigos, solo amigos q me odian
D5 G5 A5 D5
q triste aver confiado, aver sido tan idiota


]------------------------------------------------------
]------------------------------------------------------
]------------------------------------------------------
]------4--------------------------4--5-5-7-5-4--2------
]--5-5---5-------------4-5-5---5-5-5--------------5-5--
]-5----------5-5--0-5-5-5---5--------------------------X2...




D5 G5
esta fea cancion
A5 D5
alguna historia cuenta
D5 G5
de jente muy falsa
A5 D5
trucha y careta



D5 G5
toda esta jente
A5 D5
q te estoy contando
D5 G5
agacha la kabeza
A5 D5
cuando paso a tu lado



D5 G5
te llena la boca
A5 D5
dice q te kiere
D5 G5
y si hace algo mal
A5 D5
te condenan y te hieren



D5 G5
si te ekibocaste
A5 D5
siempre lo reprochan
D5 G5
y te hechan en cara
A5 D5
siempre todas las cosas



D5 G5 A5 D5
no tengo enemigos, solo amigos q me odian
D5 G5 A5 D5
q triste aver confiado, aver sido tan idiota
D5 G5 A5 D5
no tengo enemigos, solo amigos q me odian
D5 G5 A5 D5
q triste aver confiado, aver sido tan idiota


4]------------4------5-5- 3]----------------5-5-
5]-0--5--5--------5------ 4]5-5--7-5--4---2-----
q triste aver confiado, aver sido tan idiota x 2


D5 A5
idiota...
D5 A5
idiota...
D5 A5
idiota...
D5 A5
idiota...
D5
idiota...

weno ak les dejo este tema ami me kaga de gusto
lo q no me gusta es q copien a mi wen amigo ricky
ya q nadie ocupa su lugar...wee loko suerte en todo
les dejo mi mail: [email protected]

aguante el punk de SAN LUIS CAPITAL LOKO
SALUDOS A MI MEJOR AMIGO JORGE
Y WE LOKO ME DSPIDO
NIKO(CHILA) PUNK NOT DEAD

FLOG

NICKO_ROCK


NUEVO FORO DE MÚSICA

¿Tienes alguna duda, consulta, pregunta, consejo o algo para compartir sobre esta canción?

¡Puedes abrir un hilo en el FORO para que la comunidad te ayude! Hacer una pregunta

ACORDES PARA GUITARRA

PIANO UKELELE
D5
G5
A5


Las más tocadas de Nihilismo

D5
G5
A5